ISO-10303-21;
HEADER;
FILE_DESCRIPTION (( 'STEP AP203' ),
    '1' );
FILE_NAME ('9dc7.STEP',
    '2022-07-07T17:36:06',
    ( '' ),
    ( '' ),
    'SwSTEP 2.0',
    'SolidWorks 2019',
    '' );
FILE_SCHEMA (( 'CONFIG_CONTROL_DESIGN' ));
ENDSEC;

DATA;
#1 = FACE_BOUND ( 'NONE', #227, .T. ) ;
#2 = PERSON_AND_ORGANIZATION_ROLE ( 'creator' ) ;
#3 = ADVANCED_FACE ( 'NONE', ( #10 ), #36, .F. ) ;
#4 = CARTESIAN_POINT ( 'NONE',  ( -6.000000000000000888, 0.000000000000000000, 5.000000000000000000 ) ) ;
#5 = PERSON_AND_ORGANIZATION_ROLE ( 'design_owner' ) ;
#6 = DIRECTION ( 'NONE',  ( 1.000000000000000000, 0.000000000000000000, 0.000000000000000000 ) ) ;
#7 = FACE_OUTER_BOUND ( 'NONE', #95, .T. ) ;
#8 = AXIS2_PLACEMENT_3D ( 'NONE', #82, #23, #66 ) ;
#9 = PRODUCT_DEFINITION ( 'NEZNÁMÝ', '', #114, #33 ) ;
#10 = FACE_OUTER_BOUND ( 'NONE', #208, .T. ) ;
#11 = ORIENTED_EDGE ( 'NONE', *, *, #77, .T. ) ;
#12 = EDGE_CURVE ( 'NONE', #186, #244, #93, .T. ) ;
#13 = VERTEX_POINT ( 'NONE', #70 ) ;
#14 = ORIENTED_EDGE ( 'NONE', *, *, #77, .F. ) ;
#15 = CC_DESIGN_PERSON_AND_ORGANIZATION_ASSIGNMENT ( #125, #5, ( #128 ) ) ;
#16 = AXIS2_PLACEMENT_3D ( 'NONE', #179, #216, #103 ) ;
#17 = CC_DESIGN_SECURITY_CLASSIFICATION ( #97, ( #114 ) ) ;
#18 = PERSON_AND_ORGANIZATION ( #193, #224 ) ;
#19 = SHAPE_DEFINITION_REPRESENTATION ( #92, #51 ) ;
#20 = APPROVAL_ROLE ( '' ) ;
#21 = DIRECTION ( 'NONE',  ( 1.000000000000000000, 0.000000000000000000, 0.000000000000000000 ) ) ;
#22 = DIRECTION ( 'NONE',  ( -1.000000000000000000, 0.000000000000000000, 0.000000000000000000 ) ) ;
#23 = DIRECTION ( 'NONE',  ( 0.000000000000000000, 0.000000000000000000, 1.000000000000000000 ) ) ;
#24 = FACE_OUTER_BOUND ( 'NONE', #37, .T. ) ;
#25 = ADVANCED_FACE ( 'NONE', ( #56 ), #248, .T. ) ;
#26 = DIRECTION ( 'NONE',  ( 0.000000000000000000, 0.000000000000000000, 1.000000000000000000 ) ) ;
#27 =( NAMED_UNIT ( * ) PLANE_ANGLE_UNIT ( ) SI_UNIT ( $, .RADIAN. ) );
#28 = DIRECTION ( 'NONE',  ( 1.000000000000000000, 0.000000000000000000, 0.000000000000000000 ) ) ;
#29 = CARTESIAN_POINT ( 'NONE',  ( 0.000000000000000000, 0.000000000000000000, 205.0000000000000284 ) ) ;
#30 = CYLINDRICAL_SURFACE ( 'NONE', #174, 6.000000000000000888 ) ;
#31 = MECHANICAL_CONTEXT ( 'NONE', #41, 'mechanical' ) ;
#32 = EDGE_LOOP ( 'NONE', ( #111, #229 ) ) ;
#33 = DESIGN_CONTEXT ( 'detailed design', #152, 'design' ) ;
#34 = ORIENTED_EDGE ( 'NONE', *, *, #160, .F. ) ;
#35 = PRODUCT_RELATED_PRODUCT_CATEGORY ( 'detail', '', ( #128 ) ) ;
#36 = PLANE ( 'NONE',  #38 ) ;
#37 = EDGE_LOOP ( 'NONE', ( #185, #134, #72, #11 ) ) ;
#38 = AXIS2_PLACEMENT_3D ( 'NONE', #247, #75, #228 ) ;
#39 = APPROVAL_PERSON_ORGANIZATION ( #255, #79, #198 ) ;
#40 = PERSON_AND_ORGANIZATION ( #193, #224 ) ;
#41 = APPLICATION_CONTEXT ( 'configuration controlled 3d designs of mechanical parts and assemblies' ) ;
#42 = PERSON_AND_ORGANIZATION_ROLE ( 'classification_officer' ) ;
#43 = APPROVAL_DATE_TIME ( #212, #225 ) ;
#44 = CIRCLE ( 'NONE', #87, 6.000000000000000888 ) ;
#45 = CARTESIAN_POINT ( 'NONE',  ( 0.000000000000000000, 0.000000000000000000, 5.000000000000000000 ) ) ;
#46 = AXIS2_PLACEMENT_3D ( 'NONE', #45, #119, #52 ) ;
#47 = EDGE_CURVE ( 'NONE', #244, #13, #105, .T. ) ;
#48 = CARTESIAN_POINT ( 'NONE',  ( -3.500000000000000000, 0.000000000000000000, 205.0000000000000284 ) ) ;
#49 = DIRECTION ( 'NONE',  ( 1.000000000000000000, 0.000000000000000000, 0.000000000000000000 ) ) ;
#50 = DIRECTION ( 'NONE',  ( 0.000000000000000000, 0.000000000000000000, 1.000000000000000000 ) ) ;
#51 = ADVANCED_BREP_SHAPE_REPRESENTATION ( '9dc7', ( #63, #157 ), #250 ) ;
#52 = DIRECTION ( 'NONE',  ( -1.000000000000000000, 0.000000000000000000, 0.000000000000000000 ) ) ;
#53 = CARTESIAN_POINT ( 'NONE',  ( 0.000000000000000000, 0.000000000000000000, 205.0000000000000284 ) ) ;
#54 = ORIENTED_EDGE ( 'NONE', *, *, #129, .F. ) ;
#55 = CIRCLE ( 'NONE', #189, 6.000000000000000888 ) ;
#56 = FACE_OUTER_BOUND ( 'NONE', #98, .T. ) ;
#57 = LOCAL_TIME ( 19, 36, 6.000000000000000000, #202 ) ;
#58 = ORIENTED_EDGE ( 'NONE', *, *, #112, .F. ) ;
#59 = ORIENTED_EDGE ( 'NONE', *, *, #144, .T. ) ;
#60 = VECTOR ( 'NONE', #161, 1000.000000000000000 ) ;
#61 = APPROVAL_DATE_TIME ( #117, #71 ) ;
#62 = CC_DESIGN_APPROVAL ( #71, ( #97 ) ) ;
#63 = MANIFOLD_SOLID_BREP ( 'Pøidat vysunutím3', #132 ) ;
#64 = DIRECTION ( 'NONE',  ( 0.000000000000000000, 0.000000000000000000, 1.000000000000000000 ) ) ;
#65 = DIRECTION ( 'NONE',  ( 1.000000000000000000, 0.000000000000000000, 0.000000000000000000 ) ) ;
#66 = DIRECTION ( 'NONE',  ( 1.000000000000000000, 0.000000000000000000, 0.000000000000000000 ) ) ;
#67 = PERSON_AND_ORGANIZATION ( #193, #224 ) ;
#68 = DIRECTION ( 'NONE',  ( -0.000000000000000000, -0.000000000000000000, -1.000000000000000000 ) ) ;
#69 = CC_DESIGN_PERSON_AND_ORGANIZATION_ASSIGNMENT ( #67, #2, ( #9 ) ) ;
#70 = CARTESIAN_POINT ( 'NONE',  ( -3.500000000000000000, 0.000000000000000000, 5.000000000000000000 ) ) ;
#71 = APPROVAL ( #191, 'NEURÈENÝ' ) ;
#72 = ORIENTED_EDGE ( 'NONE', *, *, #115, .T. ) ;
#73 = ORIENTED_EDGE ( 'NONE', *, *, #91, .F. ) ;
#74 = CIRCLE ( 'NONE', #184, 6.000000000000000888 ) ;
#75 = DIRECTION ( 'NONE',  ( 0.000000000000000000, 0.000000000000000000, 1.000000000000000000 ) ) ;
#76 = CARTESIAN_POINT ( 'NONE',  ( 0.000000000000000000, 0.000000000000000000, 205.0000000000000284 ) ) ;
#77 = EDGE_CURVE ( 'NONE', #13, #244, #131, .T. ) ;
#78 = VECTOR ( 'NONE', #209, 1000.000000000000000 ) ;
#79 = APPROVAL ( #120, 'NEURÈENÝ' ) ;
#80 = COORDINATED_UNIVERSAL_TIME_OFFSET ( 1, 0, .AHEAD. ) ;
#81 = PERSON_AND_ORGANIZATION ( #193, #224 ) ;
#82 = CARTESIAN_POINT ( 'NONE',  ( 0.000000000000000000, 0.000000000000000000, 5.000000000000000000 ) ) ;
#83 = CARTESIAN_POINT ( 'NONE',  ( 0.000000000000000000, 0.000000000000000000, 0.000000000000000000 ) ) ;
#84 = CC_DESIGN_DATE_AND_TIME_ASSIGNMENT ( #104, #180, ( #9 ) ) ;
#85 = DIRECTION ( 'NONE',  ( -0.000000000000000000, -0.000000000000000000, -1.000000000000000000 ) ) ;
#86 = COORDINATED_UNIVERSAL_TIME_OFFSET ( 1, 0, .AHEAD. ) ;
#87 = AXIS2_PLACEMENT_3D ( 'NONE', #140, #64, #177 ) ;
#88 = DIRECTION ( 'NONE',  ( 0.000000000000000000, 0.000000000000000000, 1.000000000000000000 ) ) ;
#89 = APPLICATION_PROTOCOL_DEFINITION ( 'international standard', 'config_control_design', 1994, #152 ) ;
#90 = DIRECTION ( 'NONE',  ( 0.000000000000000000, 0.000000000000000000, 1.000000000000000000 ) ) ;
#91 = EDGE_CURVE ( 'NONE', #150, #245, #142, .T. ) ;
#92 = PRODUCT_DEFINITION_SHAPE ( 'NONE', 'NONE',  #9 ) ;
#93 = LINE ( 'NONE', #149, #78 ) ;
#94 = ORIENTED_EDGE ( 'NONE', *, *, #115, .F. ) ;
#95 = EDGE_LOOP ( 'NONE', ( #226, #110, #170, #94 ) ) ;
#96 = AXIS2_PLACEMENT_3D ( 'NONE', #108, #101, #197 ) ;
#97 = SECURITY_CLASSIFICATION ( '', '', #116 ) ;
#98 = EDGE_LOOP ( 'NONE', ( #136, #109 ) ) ;
#99 = CALENDAR_DATE ( 2022, 7, 7 ) ;
#100 = AXIS2_PLACEMENT_3D ( 'NONE', #199, #26, #196 ) ;
#101 = DIRECTION ( 'NONE',  ( 0.000000000000000000, 0.000000000000000000, 1.000000000000000000 ) ) ;
#102 = CARTESIAN_POINT ( 'NONE',  ( 6.000000000000000888, 7.347880794884120722E-16, 5.000000000000000000 ) ) ;
#103 = DIRECTION ( 'NONE',  ( 1.000000000000000000, 0.000000000000000000, 0.000000000000000000 ) ) ;
#104 = DATE_AND_TIME ( #122, #214 ) ;
#105 = CIRCLE ( 'NONE', #16, 3.500000000000000000 ) ;
#106 = FACE_OUTER_BOUND ( 'NONE', #151, .T. ) ;
#107 = LOCAL_TIME ( 19, 36, 6.000000000000000000, #253 ) ;
#108 = CARTESIAN_POINT ( 'NONE',  ( 0.000000000000000000, 0.000000000000000000, 205.0000000000000284 ) ) ;
#109 = ORIENTED_EDGE ( 'NONE', *, *, #118, .T. ) ;
#110 = ORIENTED_EDGE ( 'NONE', *, *, #12, .T. ) ;
#111 = ORIENTED_EDGE ( 'NONE', *, *, #169, .T. ) ;
#112 = EDGE_CURVE ( 'NONE', #245, #188, #55, .T. ) ;
#113 = ORIENTED_EDGE ( 'NONE', *, *, #169, .F. ) ;
#114 = PRODUCT_DEFINITION_FORMATION_WITH_SPECIFIED_SOURCE ( 'LIBOVOLNÝ', '', #128, .NOT_KNOWN. ) ;
#115 = EDGE_CURVE ( 'NONE', #172, #13, #121, .T. ) ;
#116 = SECURITY_CLASSIFICATION_LEVEL ( 'unclassified' ) ;
#117 = DATE_AND_TIME ( #99, #107 ) ;
#118 = EDGE_CURVE ( 'NONE', #186, #172, #233, .T. ) ;
#119 = DIRECTION ( 'NONE',  ( -0.000000000000000000, -0.000000000000000000, -1.000000000000000000 ) ) ;
#120 = APPROVAL_STATUS ( 'not_yet_approved' ) ;
#121 = LINE ( 'NONE', #48, #171 ) ;
#122 = CALENDAR_DATE ( 2022, 7, 7 ) ;
#123 = ADVANCED_FACE ( 'NONE', ( #1, #166 ), #220, .T. ) ;
#124 = CARTESIAN_POINT ( 'NONE',  ( 0.000000000000000000, 0.000000000000000000, 5.000000000000000000 ) ) ;
#125 = PERSON_AND_ORGANIZATION ( #193, #224 ) ;
#126 = DIRECTION ( 'NONE',  ( 0.000000000000000000, 0.000000000000000000, 1.000000000000000000 ) ) ;
#127 = CARTESIAN_POINT ( 'NONE',  ( 3.500000000000000000, 4.286263797015736595E-16, 5.000000000000000000 ) ) ;
#128 = PRODUCT ( '9dc7', '9dc7', '', ( #31 ) ) ;
#129 = EDGE_CURVE ( 'NONE', #188, #245, #44, .T. ) ;
#130 = EDGE_LOOP ( 'NONE', ( #187, #113, #153, #205 ) ) ;
#131 = CIRCLE ( 'NONE', #138, 3.500000000000000000 ) ;
#132 = CLOSED_SHELL ( 'NONE', ( #211, #167, #203, #123, #3, #249, #25 ) ) ;
#133 = UNCERTAINTY_MEASURE_WITH_UNIT (LENGTH_MEASURE( 1.000000000000000082E-05 ), #238, 'distance_accuracy_value', 'NONE');
#134 = ORIENTED_EDGE ( 'NONE', *, *, #206, .F. ) ;
#135 = ORIENTED_EDGE ( 'NONE', *, *, #129, .T. ) ;
#136 = ORIENTED_EDGE ( 'NONE', *, *, #206, .T. ) ;
#137 = CC_DESIGN_PERSON_AND_ORGANIZATION_ASSIGNMENT ( #81, #42, ( #97 ) ) ;
#138 = AXIS2_PLACEMENT_3D ( 'NONE', #175, #88, #65 ) ;
#139 = PERSON_AND_ORGANIZATION ( #193, #224 ) ;
#140 = CARTESIAN_POINT ( 'NONE',  ( 0.000000000000000000, 0.000000000000000000, 0.000000000000000000 ) ) ;
#141 = APPROVAL_PERSON_ORGANIZATION ( #165, #225, #221 ) ;
#142 = LINE ( 'NONE', #4, #210 ) ;
#143 = CALENDAR_DATE ( 2022, 7, 7 ) ;
#144 = EDGE_CURVE ( 'NONE', #207, #188, #240, .T. ) ;
#145 = CARTESIAN_POINT ( 'NONE',  ( 0.000000000000000000, 0.000000000000000000, 205.0000000000000284 ) ) ;
#146 = CARTESIAN_POINT ( 'NONE',  ( -6.000000000000000888, 0.000000000000000000, 0.000000000000000000 ) ) ;
#147 = DIRECTION ( 'NONE',  ( 1.000000000000000000, 0.000000000000000000, -0.000000000000000000 ) ) ;
#148 = COORDINATED_UNIVERSAL_TIME_OFFSET ( 1, 0, .AHEAD. ) ;
#149 = CARTESIAN_POINT ( 'NONE',  ( 3.500000000000000000, 4.286263797015736595E-16, 205.0000000000000284 ) ) ;
#150 = VERTEX_POINT ( 'NONE', #254 ) ;
#151 = EDGE_LOOP ( 'NONE', ( #34, #59, #135, #73 ) ) ;
#152 = APPLICATION_CONTEXT ( 'configuration controlled 3d designs of mechanical parts and assemblies' ) ;
#153 = ORIENTED_EDGE ( 'NONE', *, *, #91, .T. ) ;
#154 = CC_DESIGN_PERSON_AND_ORGANIZATION_ASSIGNMENT ( #18, #215, ( #114 ) ) ;
#155 = DATE_AND_TIME ( #194, #163 ) ;
#156 = AXIS2_PLACEMENT_3D ( 'NONE', #145, #218, #21 ) ;
#157 = AXIS2_PLACEMENT_3D ( 'NONE', #83, #182, #49 ) ;
#158 = CARTESIAN_POINT ( 'NONE',  ( 3.500000000000000000, 4.286263797015736595E-16, 205.0000000000000284 ) ) ;
#159 = DIRECTION ( 'NONE',  ( -1.000000000000000000, 0.000000000000000000, 0.000000000000000000 ) ) ;
#160 = EDGE_CURVE ( 'NONE', #207, #150, #195, .T. ) ;
#161 = DIRECTION ( 'NONE',  ( -0.000000000000000000, -0.000000000000000000, -1.000000000000000000 ) ) ;
#162 = DIRECTION ( 'NONE',  ( -0.000000000000000000, -0.000000000000000000, -1.000000000000000000 ) ) ;
#163 = LOCAL_TIME ( 19, 36, 6.000000000000000000, #80 ) ;
#164 = DIRECTION ( 'NONE',  ( -0.000000000000000000, -0.000000000000000000, -1.000000000000000000 ) ) ;
#165 = PERSON_AND_ORGANIZATION ( #193, #224 ) ;
#166 = FACE_OUTER_BOUND ( 'NONE', #32, .T. ) ;
#167 = ADVANCED_FACE ( 'NONE', ( #106 ), #30, .T. ) ;
#168 = LOCAL_TIME ( 19, 36, 6.000000000000000000, #148 ) ;
#169 = EDGE_CURVE ( 'NONE', #150, #207, #74, .T. ) ;
#170 = ORIENTED_EDGE ( 'NONE', *, *, #47, .T. ) ;
#171 = VECTOR ( 'NONE', #85, 1000.000000000000000 ) ;
#172 = VERTEX_POINT ( 'NONE', #222 ) ;
#173 = ORIENTED_EDGE ( 'NONE', *, *, #47, .F. ) ;
#174 = AXIS2_PLACEMENT_3D ( 'NONE', #124, #68, #201 ) ;
#175 = CARTESIAN_POINT ( 'NONE',  ( 0.000000000000000000, 0.000000000000000000, 5.000000000000000000 ) ) ;
#176 = CC_DESIGN_PERSON_AND_ORGANIZATION_ASSIGNMENT ( #40, #231, ( #114 ) ) ;
#177 = DIRECTION ( 'NONE',  ( 1.000000000000000000, 0.000000000000000000, 0.000000000000000000 ) ) ;
#178 = DATE_AND_TIME ( #143, #57 ) ;
#179 = CARTESIAN_POINT ( 'NONE',  ( 0.000000000000000000, 0.000000000000000000, 5.000000000000000000 ) ) ;
#180 = DATE_TIME_ROLE ( 'creation_date' ) ;
#181 = CARTESIAN_POINT ( 'NONE',  ( 0.000000000000000000, 0.000000000000000000, 5.000000000000000000 ) ) ;
#182 = DIRECTION ( 'NONE',  ( 0.000000000000000000, 0.000000000000000000, 1.000000000000000000 ) ) ;
#183 = CARTESIAN_POINT ( 'NONE',  ( 6.000000000000000888, 7.347880794884120722E-16, 5.000000000000000000 ) ) ;
#184 = AXIS2_PLACEMENT_3D ( 'NONE', #181, #126, #6 ) ;
#185 = ORIENTED_EDGE ( 'NONE', *, *, #12, .F. ) ;
#186 = VERTEX_POINT ( 'NONE', #158 ) ;
#187 = ORIENTED_EDGE ( 'NONE', *, *, #144, .F. ) ;
#188 = VERTEX_POINT ( 'NONE', #242 ) ;
#189 = AXIS2_PLACEMENT_3D ( 'NONE', #204, #50, #28 ) ;
#190 = CIRCLE ( 'NONE', #96, 3.500000000000000000 ) ;
#191 = APPROVAL_STATUS ( 'not_yet_approved' ) ;
#192 = DATE_TIME_ROLE ( 'classification_date' ) ;
#193 = PERSON ( 'NEURÈENÝ', 'NEURÈENÝ', 'NEURÈENÝ', ('NEURÈENÝ'), ('NEURÈENÝ'), ('NEURÈENÝ') ) ;
#194 = CALENDAR_DATE ( 2022, 7, 7 ) ;
#195 = CIRCLE ( 'NONE', #8, 6.000000000000000888 ) ;
#196 = DIRECTION ( 'NONE',  ( 1.000000000000000000, 0.000000000000000000, -0.000000000000000000 ) ) ;
#197 = DIRECTION ( 'NONE',  ( 1.000000000000000000, 0.000000000000000000, 0.000000000000000000 ) ) ;
#198 = APPROVAL_ROLE ( '' ) ;
#199 = CARTESIAN_POINT ( 'NONE',  ( 0.000000000000000000, 0.000000000000000000, 5.000000000000000000 ) ) ;
#200 = CYLINDRICAL_SURFACE ( 'NONE', #234, 3.500000000000000000 ) ;
#201 = DIRECTION ( 'NONE',  ( -1.000000000000000000, 0.000000000000000000, 0.000000000000000000 ) ) ;
#202 = COORDINATED_UNIVERSAL_TIME_OFFSET ( 1, 0, .AHEAD. ) ;
#203 = ADVANCED_FACE ( 'NONE', ( #237 ), #235, .T. ) ;
#204 = CARTESIAN_POINT ( 'NONE',  ( 0.000000000000000000, 0.000000000000000000, 0.000000000000000000 ) ) ;
#205 = ORIENTED_EDGE ( 'NONE', *, *, #112, .T. ) ;
#206 = EDGE_CURVE ( 'NONE', #172, #186, #190, .T. ) ;
#207 = VERTEX_POINT ( 'NONE', #102 ) ;
#208 = EDGE_LOOP ( 'NONE', ( #58, #54 ) ) ;
#209 = DIRECTION ( 'NONE',  ( -0.000000000000000000, -0.000000000000000000, -1.000000000000000000 ) ) ;
#210 = VECTOR ( 'NONE', #164, 1000.000000000000000 ) ;
#211 = ADVANCED_FACE ( 'NONE', ( #7 ), #200, .T. ) ;
#212 = DATE_AND_TIME ( #232, #168 ) ;
#213 = CC_DESIGN_DATE_AND_TIME_ASSIGNMENT ( #155, #192, ( #97 ) ) ;
#214 = LOCAL_TIME ( 19, 36, 6.000000000000000000, #86 ) ;
#215 = PERSON_AND_ORGANIZATION_ROLE ( 'creator' ) ;
#216 = DIRECTION ( 'NONE',  ( 0.000000000000000000, 0.000000000000000000, 1.000000000000000000 ) ) ;
#217 = CYLINDRICAL_SURFACE ( 'NONE', #251, 3.500000000000000000 ) ;
#218 = DIRECTION ( 'NONE',  ( 0.000000000000000000, 0.000000000000000000, 1.000000000000000000 ) ) ;
#219 = DIRECTION ( 'NONE',  ( -0.000000000000000000, -0.000000000000000000, -1.000000000000000000 ) ) ;
#220 = PLANE ( 'NONE',  #100 ) ;
#221 = APPROVAL_ROLE ( '' ) ;
#222 = CARTESIAN_POINT ( 'NONE',  ( -3.500000000000000000, 0.000000000000000000, 205.0000000000000284 ) ) ;
#223 = APPLICATION_PROTOCOL_DEFINITION ( 'international standard', 'config_control_design', 1994, #41 ) ;
#224 = ORGANIZATION ( 'NEURÈENÝ', 'NEURÈENÝ', '' ) ;
#225 = APPROVAL ( #241, 'NEURÈENÝ' ) ;
#226 = ORIENTED_EDGE ( 'NONE', *, *, #118, .F. ) ;
#227 = EDGE_LOOP ( 'NONE', ( #14, #173 ) ) ;
#228 = DIRECTION ( 'NONE',  ( 1.000000000000000000, 0.000000000000000000, -0.000000000000000000 ) ) ;
#229 = ORIENTED_EDGE ( 'NONE', *, *, #160, .T. ) ;
#230 = APPROVAL_PERSON_ORGANIZATION ( #139, #71, #20 ) ;
#231 = PERSON_AND_ORGANIZATION_ROLE ( 'design_supplier' ) ;
#232 = CALENDAR_DATE ( 2022, 7, 7 ) ;
#233 = CIRCLE ( 'NONE', #156, 3.500000000000000000 ) ;
#234 = AXIS2_PLACEMENT_3D ( 'NONE', #53, #162, #22 ) ;
#235 = CYLINDRICAL_SURFACE ( 'NONE', #46, 6.000000000000000888 ) ;
#236 =( NAMED_UNIT ( * ) SI_UNIT ( $, .STERADIAN. ) SOLID_ANGLE_UNIT ( ) );
#237 = FACE_OUTER_BOUND ( 'NONE', #130, .T. ) ;
#238 =( LENGTH_UNIT ( ) NAMED_UNIT ( * ) SI_UNIT ( .MILLI., .METRE. ) );
#239 = CC_DESIGN_APPROVAL ( #225, ( #114 ) ) ;
#240 = LINE ( 'NONE', #183, #60 ) ;
#241 = APPROVAL_STATUS ( 'not_yet_approved' ) ;
#242 = CARTESIAN_POINT ( 'NONE',  ( 6.000000000000000888, 7.347880794884120722E-16, 0.000000000000000000 ) ) ;
#243 = APPROVAL_DATE_TIME ( #178, #79 ) ;
#244 = VERTEX_POINT ( 'NONE', #127 ) ;
#245 = VERTEX_POINT ( 'NONE', #146 ) ;
#246 = AXIS2_PLACEMENT_3D ( 'NONE', #76, #90, #147 ) ;
#247 = CARTESIAN_POINT ( 'NONE',  ( 0.000000000000000000, 0.000000000000000000, 0.000000000000000000 ) ) ;
#248 = PLANE ( 'NONE',  #246 ) ;
#249 = ADVANCED_FACE ( 'NONE', ( #24 ), #217, .T. ) ;
#250 =( GEOMETRIC_REPRESENTATION_CONTEXT ( 3 ) GLOBAL_UNCERTAINTY_ASSIGNED_CONTEXT ( ( #133 ) ) GLOBAL_UNIT_ASSIGNED_CONTEXT ( ( #238, #27, #236 ) ) REPRESENTATION_CONTEXT ( 'NONE', 'WORKASPACE' ) );
#251 = AXIS2_PLACEMENT_3D ( 'NONE', #29, #219, #159 ) ;
#252 = CC_DESIGN_APPROVAL ( #79, ( #9 ) ) ;
#253 = COORDINATED_UNIVERSAL_TIME_OFFSET ( 1, 0, .AHEAD. ) ;
#254 = CARTESIAN_POINT ( 'NONE',  ( -6.000000000000000888, 0.000000000000000000, 5.000000000000000000 ) ) ;
#255 = PERSON_AND_ORGANIZATION ( #193, #224 ) ;
ENDSEC;
END-ISO-10303-21;
