ISO-10303-21;
HEADER;
FILE_DESCRIPTION (( 'STEP AP203' ),
    '1' );
FILE_NAME ('00f8.STEP',
    '2023-02-13T14:23:35',
    ( '' ),
    ( '' ),
    'SwSTEP 2.0',
    'SolidWorks 2019',
    '' );
FILE_SCHEMA (( 'CONFIG_CONTROL_DESIGN' ));
ENDSEC;

DATA;
#1 = DIRECTION ( 'NONE',  ( -0.000000000000000000, -0.000000000000000000, -1.000000000000000000 ) ) ;
#2 = EDGE_LOOP ( 'NONE', ( #74, #109, #162, #57 ) ) ;
#3 = CC_DESIGN_DATE_AND_TIME_ASSIGNMENT ( #208, #176, ( #147 ) ) ;
#4 = PLANE ( 'NONE',  #134 ) ;
#5 = CARTESIAN_POINT ( 'NONE',  ( 7.000000000000000000, 8.572527594031473190E-16, 5.000000000000000000 ) ) ;
#6 = ORGANIZATION ( 'NEURÈENÝ', 'NEURÈENÝ', '' ) ;
#7 = DIRECTION ( 'NONE',  ( 0.000000000000000000, 0.000000000000000000, 1.000000000000000000 ) ) ;
#8 = PERSON_AND_ORGANIZATION ( #40, #6 ) ;
#9 = EDGE_CURVE ( 'NONE', #248, #117, #186, .T. ) ;
#10 = PERSON_AND_ORGANIZATION_ROLE ( 'creator' ) ;
#11 = CC_DESIGN_APPROVAL ( #133, ( #147 ) ) ;
#12 = APPROVAL_DATE_TIME ( #99, #133 ) ;
#13 = DIRECTION ( 'NONE',  ( 0.000000000000000000, 0.000000000000000000, 1.000000000000000000 ) ) ;
#14 = ORIENTED_EDGE ( 'NONE', *, *, #42, .F. ) ;
#15 = CALENDAR_DATE ( 2023, 13, 2 ) ;
#16 = PERSON_AND_ORGANIZATION_ROLE ( 'creator' ) ;
#17 = PRODUCT_DEFINITION_SHAPE ( 'NONE', 'NONE',  #147 ) ;
#18 =( GEOMETRIC_REPRESENTATION_CONTEXT ( 3 ) GLOBAL_UNCERTAINTY_ASSIGNED_CONTEXT ( ( #55 ) ) GLOBAL_UNIT_ASSIGNED_CONTEXT ( ( #205, #92, #226 ) ) REPRESENTATION_CONTEXT ( 'NONE', 'WORKASPACE' ) );
#19 = EDGE_CURVE ( 'NONE', #180, #58, #71, .T. ) ;
#20 = AXIS2_PLACEMENT_3D ( 'NONE', #101, #236, #49 ) ;
#21 = VECTOR ( 'NONE', #118, 1000.000000000000000 ) ;
#22 = DIRECTION ( 'NONE',  ( 0.000000000000000000, 0.000000000000000000, 1.000000000000000000 ) ) ;
#23 = PRODUCT ( '00f8', '00f8', '', ( #51 ) ) ;
#24 = DIRECTION ( 'NONE',  ( 0.000000000000000000, 0.000000000000000000, 1.000000000000000000 ) ) ;
#25 = CYLINDRICAL_SURFACE ( 'NONE', #187, 4.000000000000000000 ) ;
#26 = DIRECTION ( 'NONE',  ( -0.000000000000000000, -0.000000000000000000, -1.000000000000000000 ) ) ;
#27 = EDGE_LOOP ( 'NONE', ( #47, #237, #107, #141 ) ) ;
#28 = DIRECTION ( 'NONE',  ( 0.000000000000000000, 0.000000000000000000, 1.000000000000000000 ) ) ;
#29 = VECTOR ( 'NONE', #1, 1000.000000000000000 ) ;
#30 = ORIENTED_EDGE ( 'NONE', *, *, #221, .F. ) ;
#31 = LOCAL_TIME ( 15, 23, 35.00000000000000000, #209 ) ;
#32 = MANIFOLD_SOLID_BREP ( 'Pøidat vysunutím3', #216 ) ;
#33 = EDGE_CURVE ( 'NONE', #69, #117, #174, .T. ) ;
#34 = DATE_AND_TIME ( #154, #190 ) ;
#35 = AXIS2_PLACEMENT_3D ( 'NONE', #165, #240, #145 ) ;
#36 = CALENDAR_DATE ( 2023, 13, 2 ) ;
#37 = EDGE_LOOP ( 'NONE', ( #14, #202, #123, #223 ) ) ;
#38 = CC_DESIGN_PERSON_AND_ORGANIZATION_ASSIGNMENT ( #62, #228, ( #158 ) ) ;
#39 = DIRECTION ( 'NONE',  ( 1.000000000000000000, 0.000000000000000000, 0.000000000000000000 ) ) ;
#40 = PERSON ( 'NEURÈENÝ', 'NEURÈENÝ', 'NEURÈENÝ', ('NEURÈENÝ'), ('NEURÈENÝ'), ('NEURÈENÝ') ) ;
#41 = CARTESIAN_POINT ( 'NONE',  ( -4.000000000000000000, 0.000000000000000000, 5.000000000000000000 ) ) ;
#42 = EDGE_CURVE ( 'NONE', #180, #230, #64, .T. ) ;
#43 = APPROVAL_PERSON_ORGANIZATION ( #189, #249, #251 ) ;
#44 = DIRECTION ( 'NONE',  ( -0.000000000000000000, -0.000000000000000000, -1.000000000000000000 ) ) ;
#45 = EDGE_LOOP ( 'NONE', ( #125, #172 ) ) ;
#46 = FACE_OUTER_BOUND ( 'NONE', #45, .T. ) ;
#47 = ORIENTED_EDGE ( 'NONE', *, *, #166, .F. ) ;
#48 = CIRCLE ( 'NONE', #252, 4.000000000000000000 ) ;
#49 = DIRECTION ( 'NONE',  ( 1.000000000000000000, 0.000000000000000000, 0.000000000000000000 ) ) ;
#50 = SECURITY_CLASSIFICATION ( '', '', #56 ) ;
#51 = MECHANICAL_CONTEXT ( 'NONE', #206, 'mechanical' ) ;
#52 = APPLICATION_PROTOCOL_DEFINITION ( 'international standard', 'config_control_design', 1994, #204 ) ;
#53 = AXIS2_PLACEMENT_3D ( 'NONE', #229, #213, #155 ) ;
#54 = APPROVAL ( #212, 'NEURÈENÝ' ) ;
#55 = UNCERTAINTY_MEASURE_WITH_UNIT (LENGTH_MEASURE( 1.000000000000000082E-05 ), #205, 'distance_accuracy_value', 'NONE');
#56 = SECURITY_CLASSIFICATION_LEVEL ( 'unclassified' ) ;
#57 = ORIENTED_EDGE ( 'NONE', *, *, #119, .F. ) ;
#58 = VERTEX_POINT ( 'NONE', #210 ) ;
#59 = CC_DESIGN_SECURITY_CLASSIFICATION ( #50, ( #158 ) ) ;
#60 = CC_DESIGN_APPROVAL ( #249, ( #158 ) ) ;
#61 = PERSON_AND_ORGANIZATION_ROLE ( 'classification_officer' ) ;
#62 = PERSON_AND_ORGANIZATION ( #40, #6 ) ;
#63 = ADVANCED_FACE ( 'NONE', ( #238, #140 ), #222, .T. ) ;
#64 = LINE ( 'NONE', #97, #203 ) ;
#65 = CARTESIAN_POINT ( 'NONE',  ( 0.000000000000000000, 0.000000000000000000, 5.000000000000000000 ) ) ;
#66 = ORIENTED_EDGE ( 'NONE', *, *, #9, .F. ) ;
#67 = DIRECTION ( 'NONE',  ( 1.000000000000000000, 0.000000000000000000, -0.000000000000000000 ) ) ;
#68 = FACE_OUTER_BOUND ( 'NONE', #198, .T. ) ;
#69 = VERTEX_POINT ( 'NONE', #41 ) ;
#70 = DIRECTION ( 'NONE',  ( 0.000000000000000000, 0.000000000000000000, 1.000000000000000000 ) ) ;
#71 = CIRCLE ( 'NONE', #178, 7.000000000000000000 ) ;
#72 = CALENDAR_DATE ( 2023, 13, 2 ) ;
#73 = EDGE_CURVE ( 'NONE', #86, #230, #114, .T. ) ;
#74 = ORIENTED_EDGE ( 'NONE', *, *, #19, .F. ) ;
#75 = APPROVAL_STATUS ( 'not_yet_approved' ) ;
#76 = APPROVAL_DATE_TIME ( #34, #249 ) ;
#77 = EDGE_CURVE ( 'NONE', #58, #180, #137, .T. ) ;
#78 = COORDINATED_UNIVERSAL_TIME_OFFSET ( 1, 0, .AHEAD. ) ;
#79 = DESIGN_CONTEXT ( 'detailed design', #204, 'design' ) ;
#80 = CARTESIAN_POINT ( 'NONE',  ( 0.000000000000000000, 0.000000000000000000, 5.000000000000000000 ) ) ;
#81 = DIRECTION ( 'NONE',  ( 0.000000000000000000, 0.000000000000000000, 1.000000000000000000 ) ) ;
#82 = CARTESIAN_POINT ( 'NONE',  ( 0.000000000000000000, 0.000000000000000000, 5.000000000000000000 ) ) ;
#83 = EDGE_LOOP ( 'NONE', ( #89, #151 ) ) ;
#84 = DIRECTION ( 'NONE',  ( 0.000000000000000000, 0.000000000000000000, 1.000000000000000000 ) ) ;
#85 = VERTEX_POINT ( 'NONE', #219 ) ;
#86 = VERTEX_POINT ( 'NONE', #142 ) ;
#87 = CYLINDRICAL_SURFACE ( 'NONE', #35, 4.000000000000000000 ) ;
#88 = ORIENTED_EDGE ( 'NONE', *, *, #105, .F. ) ;
#89 = ORIENTED_EDGE ( 'NONE', *, *, #221, .T. ) ;
#90 = DIRECTION ( 'NONE',  ( 1.000000000000000000, 0.000000000000000000, 0.000000000000000000 ) ) ;
#91 = CC_DESIGN_PERSON_AND_ORGANIZATION_ASSIGNMENT ( #232, #16, ( #147 ) ) ;
#92 =( NAMED_UNIT ( * ) PLANE_ANGLE_UNIT ( ) SI_UNIT ( $, .RADIAN. ) );
#93 = DIRECTION ( 'NONE',  ( -0.000000000000000000, -0.000000000000000000, -1.000000000000000000 ) ) ;
#94 = PERSON_AND_ORGANIZATION ( #40, #6 ) ;
#95 = AXIS2_PLACEMENT_3D ( 'NONE', #146, #70, #112 ) ;
#96 = SHAPE_DEFINITION_REPRESENTATION ( #17, #148 ) ;
#97 = CARTESIAN_POINT ( 'NONE',  ( 7.000000000000000000, 8.572527594031473190E-16, 5.000000000000000000 ) ) ;
#98 = EDGE_LOOP ( 'NONE', ( #211, #143 ) ) ;
#99 = DATE_AND_TIME ( #15, #127 ) ;
#100 = CC_DESIGN_PERSON_AND_ORGANIZATION_ASSIGNMENT ( #184, #149, ( #23 ) ) ;
#101 = CARTESIAN_POINT ( 'NONE',  ( 0.000000000000000000, 0.000000000000000000, 0.000000000000000000 ) ) ;
#102 = ADVANCED_FACE ( 'NONE', ( #68 ), #25, .T. ) ;
#103 = FACE_OUTER_BOUND ( 'NONE', #2, .T. ) ;
#104 = FACE_OUTER_BOUND ( 'NONE', #37, .T. ) ;
#105 = EDGE_CURVE ( 'NONE', #117, #69, #48, .T. ) ;
#106 = FACE_OUTER_BOUND ( 'NONE', #27, .T. ) ;
#107 = ORIENTED_EDGE ( 'NONE', *, *, #105, .T. ) ;
#108 = DIRECTION ( 'NONE',  ( 1.000000000000000000, 0.000000000000000000, 0.000000000000000000 ) ) ;
#109 = ORIENTED_EDGE ( 'NONE', *, *, #42, .T. ) ;
#110 = ADVANCED_FACE ( 'NONE', ( #46 ), #4, .F. ) ;
#111 = VECTOR ( 'NONE', #93, 1000.000000000000000 ) ;
#112 = DIRECTION ( 'NONE',  ( 1.000000000000000000, 0.000000000000000000, -0.000000000000000000 ) ) ;
#113 = CARTESIAN_POINT ( 'NONE',  ( 0.000000000000000000, 0.000000000000000000, 0.000000000000000000 ) ) ;
#114 = CIRCLE ( 'NONE', #207, 7.000000000000000000 ) ;
#115 = APPROVAL_DATE_TIME ( #170, #54 ) ;
#116 = LOCAL_TIME ( 15, 23, 35.00000000000000000, #233 ) ;
#117 = VERTEX_POINT ( 'NONE', #235 ) ;
#118 = DIRECTION ( 'NONE',  ( -0.000000000000000000, -0.000000000000000000, -1.000000000000000000 ) ) ;
#119 = EDGE_CURVE ( 'NONE', #58, #86, #159, .T. ) ;
#120 = CARTESIAN_POINT ( 'NONE',  ( 0.000000000000000000, 0.000000000000000000, 100.0000000000000000 ) ) ;
#121 = AXIS2_PLACEMENT_3D ( 'NONE', #113, #7, #90 ) ;
#122 = CARTESIAN_POINT ( 'NONE',  ( 0.000000000000000000, 0.000000000000000000, 0.000000000000000000 ) ) ;
#123 = ORIENTED_EDGE ( 'NONE', *, *, #119, .T. ) ;
#124 = DIRECTION ( 'NONE',  ( -1.000000000000000000, 0.000000000000000000, 0.000000000000000000 ) ) ;
#125 = ORIENTED_EDGE ( 'NONE', *, *, #73, .F. ) ;
#126 = LINE ( 'NONE', #196, #29 ) ;
#127 = LOCAL_TIME ( 15, 23, 35.00000000000000000, #188 ) ;
#128 = ORIENTED_EDGE ( 'NONE', *, *, #33, .F. ) ;
#129 = CC_DESIGN_PERSON_AND_ORGANIZATION_ASSIGNMENT ( #94, #10, ( #158 ) ) ;
#130 = AXIS2_PLACEMENT_3D ( 'NONE', #139, #217, #67 ) ;
#131 = FACE_OUTER_BOUND ( 'NONE', #83, .T. ) ;
#132 = AXIS2_PLACEMENT_3D ( 'NONE', #200, #28, #108 ) ;
#133 = APPROVAL ( #225, 'NEURÈENÝ' ) ;
#134 = AXIS2_PLACEMENT_3D ( 'NONE', #122, #215, #144 ) ;
#135 = ORIENTED_EDGE ( 'NONE', *, *, #33, .T. ) ;
#136 = PERSON_AND_ORGANIZATION ( #40, #6 ) ;
#137 = CIRCLE ( 'NONE', #197, 7.000000000000000000 ) ;
#138 = DATE_AND_TIME ( #36, #116 ) ;
#139 = CARTESIAN_POINT ( 'NONE',  ( 0.000000000000000000, 0.000000000000000000, 5.000000000000000000 ) ) ;
#140 = FACE_OUTER_BOUND ( 'NONE', #98, .T. ) ;
#141 = ORIENTED_EDGE ( 'NONE', *, *, #173, .F. ) ;
#142 = CARTESIAN_POINT ( 'NONE',  ( -7.000000000000000000, 0.000000000000000000, 0.000000000000000000 ) ) ;
#143 = ORIENTED_EDGE ( 'NONE', *, *, #19, .T. ) ;
#144 = DIRECTION ( 'NONE',  ( 1.000000000000000000, 0.000000000000000000, -0.000000000000000000 ) ) ;
#145 = DIRECTION ( 'NONE',  ( -1.000000000000000000, 0.000000000000000000, 0.000000000000000000 ) ) ;
#146 = CARTESIAN_POINT ( 'NONE',  ( 0.000000000000000000, 0.000000000000000000, 100.0000000000000000 ) ) ;
#147 = PRODUCT_DEFINITION ( 'NEZNÁMÝ', '', #158, #79 ) ;
#148 = ADVANCED_BREP_SHAPE_REPRESENTATION ( '00f8', ( #32, #121 ), #18 ) ;
#149 = PERSON_AND_ORGANIZATION_ROLE ( 'design_owner' ) ;
#150 = APPROVAL_PERSON_ORGANIZATION ( #136, #54, #214 ) ;
#151 = ORIENTED_EDGE ( 'NONE', *, *, #166, .T. ) ;
#152 = CALENDAR_DATE ( 2023, 13, 2 ) ;
#153 = DATE_TIME_ROLE ( 'classification_date' ) ;
#154 = CALENDAR_DATE ( 2023, 13, 2 ) ;
#155 = DIRECTION ( 'NONE',  ( 1.000000000000000000, 0.000000000000000000, 0.000000000000000000 ) ) ;
#156 = EDGE_CURVE ( 'NONE', #230, #86, #167, .T. ) ;
#157 = DIRECTION ( 'NONE',  ( 1.000000000000000000, 0.000000000000000000, 0.000000000000000000 ) ) ;
#158 = PRODUCT_DEFINITION_FORMATION_WITH_SPECIFIED_SOURCE ( 'LIBOVOLNÝ', '', #23, .NOT_KNOWN. ) ;
#159 = LINE ( 'NONE', #195, #21 ) ;
#160 = PRODUCT_RELATED_PRODUCT_CATEGORY ( 'detail', '', ( #23 ) ) ;
#161 = DIRECTION ( 'NONE',  ( -1.000000000000000000, 0.000000000000000000, 0.000000000000000000 ) ) ;
#162 = ORIENTED_EDGE ( 'NONE', *, *, #156, .T. ) ;
#163 = EDGE_LOOP ( 'NONE', ( #128, #88 ) ) ;
#164 = ORIENTED_EDGE ( 'NONE', *, *, #173, .T. ) ;
#165 = CARTESIAN_POINT ( 'NONE',  ( 0.000000000000000000, 0.000000000000000000, 100.0000000000000000 ) ) ;
#166 = EDGE_CURVE ( 'NONE', #248, #85, #169, .T. ) ;
#167 = CIRCLE ( 'NONE', #20, 7.000000000000000000 ) ;
#168 = CC_DESIGN_APPROVAL ( #54, ( #50 ) ) ;
#169 = CIRCLE ( 'NONE', #239, 4.000000000000000000 ) ;
#170 = DATE_AND_TIME ( #72, #255 ) ;
#171 = DIRECTION ( 'NONE',  ( -0.000000000000000000, -0.000000000000000000, -1.000000000000000000 ) ) ;
#172 = ORIENTED_EDGE ( 'NONE', *, *, #156, .F. ) ;
#173 = EDGE_CURVE ( 'NONE', #85, #69, #126, .T. ) ;
#174 = CIRCLE ( 'NONE', #53, 4.000000000000000000 ) ;
#175 = APPROVAL_ROLE ( '' ) ;
#176 = DATE_TIME_ROLE ( 'creation_date' ) ;
#177 = ADVANCED_FACE ( 'NONE', ( #104 ), #220, .T. ) ;
#178 = AXIS2_PLACEMENT_3D ( 'NONE', #245, #13, #250 ) ;
#179 = CYLINDRICAL_SURFACE ( 'NONE', #224, 7.000000000000000000 ) ;
#180 = VERTEX_POINT ( 'NONE', #5 ) ;
#181 = CARTESIAN_POINT ( 'NONE',  ( 0.000000000000000000, 0.000000000000000000, 100.0000000000000000 ) ) ;
#182 = DIRECTION ( 'NONE',  ( -0.000000000000000000, -0.000000000000000000, -1.000000000000000000 ) ) ;
#183 = DIRECTION ( 'NONE',  ( 1.000000000000000000, 0.000000000000000000, 0.000000000000000000 ) ) ;
#184 = PERSON_AND_ORGANIZATION ( #40, #6 ) ;
#185 = CIRCLE ( 'NONE', #132, 4.000000000000000000 ) ;
#186 = LINE ( 'NONE', #243, #111 ) ;
#187 = AXIS2_PLACEMENT_3D ( 'NONE', #181, #44, #234 ) ;
#188 = COORDINATED_UNIVERSAL_TIME_OFFSET ( 1, 0, .AHEAD. ) ;
#189 = PERSON_AND_ORGANIZATION ( #40, #6 ) ;
#190 = LOCAL_TIME ( 15, 23, 35.00000000000000000, #78 ) ;
#191 = ADVANCED_FACE ( 'NONE', ( #103 ), #179, .T. ) ;
#192 = CARTESIAN_POINT ( 'NONE',  ( 0.000000000000000000, 0.000000000000000000, 5.000000000000000000 ) ) ;
#193 = CARTESIAN_POINT ( 'NONE',  ( 0.000000000000000000, 0.000000000000000000, 0.000000000000000000 ) ) ;
#194 = APPROVAL_PERSON_ORGANIZATION ( #8, #133, #175 ) ;
#195 = CARTESIAN_POINT ( 'NONE',  ( -7.000000000000000000, 0.000000000000000000, 5.000000000000000000 ) ) ;
#196 = CARTESIAN_POINT ( 'NONE',  ( -4.000000000000000000, 0.000000000000000000, 100.0000000000000000 ) ) ;
#197 = AXIS2_PLACEMENT_3D ( 'NONE', #80, #22, #157 ) ;
#198 = EDGE_LOOP ( 'NONE', ( #66, #30, #164, #135 ) ) ;
#199 = CC_DESIGN_DATE_AND_TIME_ASSIGNMENT ( #138, #153, ( #50 ) ) ;
#200 = CARTESIAN_POINT ( 'NONE',  ( 0.000000000000000000, 0.000000000000000000, 100.0000000000000000 ) ) ;
#201 = AXIS2_PLACEMENT_3D ( 'NONE', #192, #182, #124 ) ;
#202 = ORIENTED_EDGE ( 'NONE', *, *, #77, .F. ) ;
#203 = VECTOR ( 'NONE', #171, 1000.000000000000000 ) ;
#204 = APPLICATION_CONTEXT ( 'configuration controlled 3d designs of mechanical parts and assemblies' ) ;
#205 =( LENGTH_UNIT ( ) NAMED_UNIT ( * ) SI_UNIT ( .MILLI., .METRE. ) );
#206 = APPLICATION_CONTEXT ( 'configuration controlled 3d designs of mechanical parts and assemblies' ) ;
#207 = AXIS2_PLACEMENT_3D ( 'NONE', #193, #84, #183 ) ;
#208 = DATE_AND_TIME ( #152, #31 ) ;
#209 = COORDINATED_UNIVERSAL_TIME_OFFSET ( 1, 0, .AHEAD. ) ;
#210 = CARTESIAN_POINT ( 'NONE',  ( -7.000000000000000000, 0.000000000000000000, 5.000000000000000000 ) ) ;
#211 = ORIENTED_EDGE ( 'NONE', *, *, #77, .T. ) ;
#212 = APPROVAL_STATUS ( 'not_yet_approved' ) ;
#213 = DIRECTION ( 'NONE',  ( 0.000000000000000000, 0.000000000000000000, 1.000000000000000000 ) ) ;
#214 = APPROVAL_ROLE ( '' ) ;
#215 = DIRECTION ( 'NONE',  ( 0.000000000000000000, 0.000000000000000000, 1.000000000000000000 ) ) ;
#216 = CLOSED_SHELL ( 'NONE', ( #218, #191, #177, #63, #110, #102, #253 ) ) ;
#217 = DIRECTION ( 'NONE',  ( 0.000000000000000000, 0.000000000000000000, 1.000000000000000000 ) ) ;
#218 = ADVANCED_FACE ( 'NONE', ( #106 ), #87, .T. ) ;
#219 = CARTESIAN_POINT ( 'NONE',  ( -4.000000000000000000, 0.000000000000000000, 100.0000000000000000 ) ) ;
#220 = CYLINDRICAL_SURFACE ( 'NONE', #201, 7.000000000000000000 ) ;
#221 = EDGE_CURVE ( 'NONE', #85, #248, #185, .T. ) ;
#222 = PLANE ( 'NONE',  #130 ) ;
#223 = ORIENTED_EDGE ( 'NONE', *, *, #73, .T. ) ;
#224 = AXIS2_PLACEMENT_3D ( 'NONE', #82, #26, #161 ) ;
#225 = APPROVAL_STATUS ( 'not_yet_approved' ) ;
#226 =( NAMED_UNIT ( * ) SI_UNIT ( $, .STERADIAN. ) SOLID_ANGLE_UNIT ( ) );
#227 = PLANE ( 'NONE',  #95 ) ;
#228 = PERSON_AND_ORGANIZATION_ROLE ( 'design_supplier' ) ;
#229 = CARTESIAN_POINT ( 'NONE',  ( 0.000000000000000000, 0.000000000000000000, 5.000000000000000000 ) ) ;
#230 = VERTEX_POINT ( 'NONE', #241 ) ;
#231 = PERSON_AND_ORGANIZATION ( #40, #6 ) ;
#232 = PERSON_AND_ORGANIZATION ( #40, #6 ) ;
#233 = COORDINATED_UNIVERSAL_TIME_OFFSET ( 1, 0, .AHEAD. ) ;
#234 = DIRECTION ( 'NONE',  ( -1.000000000000000000, 0.000000000000000000, 0.000000000000000000 ) ) ;
#235 = CARTESIAN_POINT ( 'NONE',  ( 4.000000000000000000, 4.898587196589412829E-16, 5.000000000000000000 ) ) ;
#236 = DIRECTION ( 'NONE',  ( 0.000000000000000000, 0.000000000000000000, 1.000000000000000000 ) ) ;
#237 = ORIENTED_EDGE ( 'NONE', *, *, #9, .T. ) ;
#238 = FACE_BOUND ( 'NONE', #163, .T. ) ;
#239 = AXIS2_PLACEMENT_3D ( 'NONE', #120, #24, #254 ) ;
#240 = DIRECTION ( 'NONE',  ( -0.000000000000000000, -0.000000000000000000, -1.000000000000000000 ) ) ;
#241 = CARTESIAN_POINT ( 'NONE',  ( 7.000000000000000000, 8.572527594031473190E-16, 0.000000000000000000 ) ) ;
#242 = APPLICATION_PROTOCOL_DEFINITION ( 'international standard', 'config_control_design', 1994, #206 ) ;
#243 = CARTESIAN_POINT ( 'NONE',  ( 4.000000000000000000, 4.898587196589412829E-16, 100.0000000000000000 ) ) ;
#244 = CARTESIAN_POINT ( 'NONE',  ( 4.000000000000000000, 4.898587196589412829E-16, 100.0000000000000000 ) ) ;
#245 = CARTESIAN_POINT ( 'NONE',  ( 0.000000000000000000, 0.000000000000000000, 5.000000000000000000 ) ) ;
#246 = CC_DESIGN_PERSON_AND_ORGANIZATION_ASSIGNMENT ( #231, #61, ( #50 ) ) ;
#247 = COORDINATED_UNIVERSAL_TIME_OFFSET ( 1, 0, .AHEAD. ) ;
#248 = VERTEX_POINT ( 'NONE', #244 ) ;
#249 = APPROVAL ( #75, 'NEURÈENÝ' ) ;
#250 = DIRECTION ( 'NONE',  ( 1.000000000000000000, 0.000000000000000000, 0.000000000000000000 ) ) ;
#251 = APPROVAL_ROLE ( '' ) ;
#252 = AXIS2_PLACEMENT_3D ( 'NONE', #65, #81, #39 ) ;
#253 = ADVANCED_FACE ( 'NONE', ( #131 ), #227, .T. ) ;
#254 = DIRECTION ( 'NONE',  ( 1.000000000000000000, 0.000000000000000000, 0.000000000000000000 ) ) ;
#255 = LOCAL_TIME ( 15, 23, 35.00000000000000000, #247 ) ;
ENDSEC;
END-ISO-10303-21;
