ISO-10303-21;
HEADER;
FILE_DESCRIPTION (( 'STEP AP203' ),
    '1' );
FILE_NAME ('f774.STEP',
    '2022-07-07T17:58:57',
    ( '' ),
    ( '' ),
    'SwSTEP 2.0',
    'SolidWorks 2019',
    '' );
FILE_SCHEMA (( 'CONFIG_CONTROL_DESIGN' ));
ENDSEC;

DATA;
#1 = ORIENTED_EDGE ( 'NONE', *, *, #124, .T. ) ;
#2 = CALENDAR_DATE ( 2022, 7, 7 ) ;
#3 = APPROVAL_STATUS ( 'not_yet_approved' ) ;
#4 = ORIENTED_EDGE ( 'NONE', *, *, #58, .T. ) ;
#5 = AXIS2_PLACEMENT_3D ( 'NONE', #46, #45, #205 ) ;
#6 = ORIENTED_EDGE ( 'NONE', *, *, #168, .T. ) ;
#7 = APPROVAL_STATUS ( 'not_yet_approved' ) ;
#8 =( LENGTH_UNIT ( ) NAMED_UNIT ( * ) SI_UNIT ( .MILLI., .METRE. ) );
#9 =( NAMED_UNIT ( * ) PLANE_ANGLE_UNIT ( ) SI_UNIT ( $, .RADIAN. ) );
#10 = VECTOR ( 'NONE', #198, 1000.000000000000000 ) ;
#11 = EDGE_CURVE ( 'NONE', #240, #162, #159, .T. ) ;
#12 = DIRECTION ( 'NONE',  ( 0.000000000000000000, 0.000000000000000000, 1.000000000000000000 ) ) ;
#13 = DIRECTION ( 'NONE',  ( 1.000000000000000000, 0.000000000000000000, 0.000000000000000000 ) ) ;
#14 = ADVANCED_BREP_SHAPE_REPRESENTATION ( 'f774', ( #70, #203 ), #34 ) ;
#15 = CARTESIAN_POINT ( 'NONE',  ( -1.250000000000000000, 0.000000000000000000, 2.000000000000000000 ) ) ;
#16 = LOCAL_TIME ( 19, 58, 57.00000000000000000, #160 ) ;
#17 = DIRECTION ( 'NONE',  ( 1.000000000000000000, 0.000000000000000000, 0.000000000000000000 ) ) ;
#18 = DIRECTION ( 'NONE',  ( 0.000000000000000000, 0.000000000000000000, 1.000000000000000000 ) ) ;
#19 = CARTESIAN_POINT ( 'NONE',  ( 1.250000000000000000, 1.530808498934191571E-16, 102.0000000000000142 ) ) ;
#20 = EDGE_LOOP ( 'NONE', ( #48, #219, #21, #143 ) ) ;
#21 = ORIENTED_EDGE ( 'NONE', *, *, #137, .T. ) ;
#22 = ORIENTED_EDGE ( 'NONE', *, *, #161, .T. ) ;
#23 = AXIS2_PLACEMENT_3D ( 'NONE', #51, #210, #31 ) ;
#24 = DIRECTION ( 'NONE',  ( 1.000000000000000000, 0.000000000000000000, -0.000000000000000000 ) ) ;
#25 = CALENDAR_DATE ( 2022, 7, 7 ) ;
#26 = CARTESIAN_POINT ( 'NONE',  ( 0.000000000000000000, 0.000000000000000000, 0.000000000000000000 ) ) ;
#27 = DIRECTION ( 'NONE',  ( 0.000000000000000000, 0.000000000000000000, 1.000000000000000000 ) ) ;
#28 = AXIS2_PLACEMENT_3D ( 'NONE', #116, #18, #174 ) ;
#29 = PRODUCT_RELATED_PRODUCT_CATEGORY ( 'detail', '', ( #164 ) ) ;
#30 = CARTESIAN_POINT ( 'NONE',  ( 1.250000000000000000, 1.530808498934191571E-16, 102.0000000000000142 ) ) ;
#31 = DIRECTION ( 'NONE',  ( 1.000000000000000000, 0.000000000000000000, 0.000000000000000000 ) ) ;
#32 = PRODUCT_DEFINITION_FORMATION_WITH_SPECIFIED_SOURCE ( 'LIBOVOLNÝ', '', #164, .NOT_KNOWN. ) ;
#33 = DIRECTION ( 'NONE',  ( 0.000000000000000000, 0.000000000000000000, 1.000000000000000000 ) ) ;
#34 =( GEOMETRIC_REPRESENTATION_CONTEXT ( 3 ) GLOBAL_UNCERTAINTY_ASSIGNED_CONTEXT ( ( #67 ) ) GLOBAL_UNIT_ASSIGNED_CONTEXT ( ( #8, #9, #144 ) ) REPRESENTATION_CONTEXT ( 'NONE', 'WORKASPACE' ) );
#35 = ORIENTED_EDGE ( 'NONE', *, *, #54, .T. ) ;
#36 = CC_DESIGN_PERSON_AND_ORGANIZATION_ASSIGNMENT ( #111, #206, ( #32 ) ) ;
#37 = EDGE_LOOP ( 'NONE', ( #6, #22 ) ) ;
#38 = EDGE_LOOP ( 'NONE', ( #1, #35 ) ) ;
#39 = CARTESIAN_POINT ( 'NONE',  ( -1.250000000000000000, 0.000000000000000000, 102.0000000000000142 ) ) ;
#40 = FACE_OUTER_BOUND ( 'NONE', #37, .T. ) ;
#41 = PERSON_AND_ORGANIZATION ( #248, #95 ) ;
#42 = DIRECTION ( 'NONE',  ( 1.000000000000000000, 0.000000000000000000, 0.000000000000000000 ) ) ;
#43 = DATE_AND_TIME ( #179, #49 ) ;
#44 = CC_DESIGN_APPROVAL ( #77, ( #141 ) ) ;
#45 = DIRECTION ( 'NONE',  ( -0.000000000000000000, -0.000000000000000000, -1.000000000000000000 ) ) ;
#46 = CARTESIAN_POINT ( 'NONE',  ( 0.000000000000000000, 0.000000000000000000, 2.000000000000000000 ) ) ;
#47 = CIRCLE ( 'NONE', #244, 2.500000000000000000 ) ;
#48 = ORIENTED_EDGE ( 'NONE', *, *, #54, .F. ) ;
#49 = LOCAL_TIME ( 19, 58, 57.00000000000000000, #243 ) ;
#50 = CLOSED_SHELL ( 'NONE', ( #212, #178, #97, #222, #192, #72, #66 ) ) ;
#51 = CARTESIAN_POINT ( 'NONE',  ( 0.000000000000000000, 0.000000000000000000, 2.000000000000000000 ) ) ;
#52 = DIRECTION ( 'NONE',  ( 0.000000000000000000, 0.000000000000000000, 1.000000000000000000 ) ) ;
#53 = APPLICATION_CONTEXT ( 'configuration controlled 3d designs of mechanical parts and assemblies' ) ;
#54 = EDGE_CURVE ( 'NONE', #240, #194, #89, .T. ) ;
#55 = ORIENTED_EDGE ( 'NONE', *, *, #11, .F. ) ;
#56 = ORIENTED_EDGE ( 'NONE', *, *, #173, .F. ) ;
#57 = DIRECTION ( 'NONE',  ( -1.000000000000000000, 0.000000000000000000, 0.000000000000000000 ) ) ;
#58 = EDGE_CURVE ( 'NONE', #194, #235, #216, .T. ) ;
#59 = ORIENTED_EDGE ( 'NONE', *, *, #118, .T. ) ;
#60 = APPROVAL_STATUS ( 'not_yet_approved' ) ;
#61 = AXIS2_PLACEMENT_3D ( 'NONE', #65, #224, #249 ) ;
#62 = LOCAL_TIME ( 19, 58, 57.00000000000000000, #103 ) ;
#63 = MECHANICAL_CONTEXT ( 'NONE', #79, 'mechanical' ) ;
#64 = APPROVAL_DATE_TIME ( #225, #131 ) ;
#65 = CARTESIAN_POINT ( 'NONE',  ( 0.000000000000000000, 0.000000000000000000, 102.0000000000000142 ) ) ;
#66 = ADVANCED_FACE ( 'NONE', ( #40 ), #121, .T. ) ;
#67 = UNCERTAINTY_MEASURE_WITH_UNIT (LENGTH_MEASURE( 1.000000000000000082E-05 ), #8, 'distance_accuracy_value', 'NONE');
#68 = APPROVAL_DATE_TIME ( #221, #77 ) ;
#69 = PLANE ( 'NONE',  #229 ) ;
#70 = MANIFOLD_SOLID_BREP ( 'Pøidat vysunutím3', #50 ) ;
#71 = CIRCLE ( 'NONE', #172, 1.250000000000000000 ) ;
#72 = ADVANCED_FACE ( 'NONE', ( #142 ), #78, .T. ) ;
#73 = CYLINDRICAL_SURFACE ( 'NONE', #5, 2.500000000000000000 ) ;
#74 = AXIS2_PLACEMENT_3D ( 'NONE', #245, #33, #226 ) ;
#75 = CARTESIAN_POINT ( 'NONE',  ( 2.500000000000000000, 3.061616997868383141E-16, 2.000000000000000000 ) ) ;
#76 = AXIS2_PLACEMENT_3D ( 'NONE', #110, #250, #42 ) ;
#77 = APPROVAL ( #7, 'NEURÈENÝ' ) ;
#78 = CYLINDRICAL_SURFACE ( 'NONE', #234, 1.250000000000000000 ) ;
#79 = APPLICATION_CONTEXT ( 'configuration controlled 3d designs of mechanical parts and assemblies' ) ;
#80 = VERTEX_POINT ( 'NONE', #19 ) ;
#81 = CYLINDRICAL_SURFACE ( 'NONE', #231, 2.500000000000000000 ) ;
#82 = EDGE_LOOP ( 'NONE', ( #56, #133 ) ) ;
#83 = PERSON_AND_ORGANIZATION ( #248, #95 ) ;
#84 = EDGE_LOOP ( 'NONE', ( #55, #155, #4, #59 ) ) ;
#85 = APPROVAL_ROLE ( '' ) ;
#86 = DATE_TIME_ROLE ( 'creation_date' ) ;
#87 = CC_DESIGN_DATE_AND_TIME_ASSIGNMENT ( #107, #86, ( #141 ) ) ;
#88 = DIRECTION ( 'NONE',  ( 0.000000000000000000, 0.000000000000000000, 1.000000000000000000 ) ) ;
#89 = CIRCLE ( 'NONE', #28, 2.500000000000000000 ) ;
#90 = PERSON_AND_ORGANIZATION ( #248, #95 ) ;
#91 = DIRECTION ( 'NONE',  ( -0.000000000000000000, -0.000000000000000000, -1.000000000000000000 ) ) ;
#92 = SECURITY_CLASSIFICATION_LEVEL ( 'unclassified' ) ;
#93 = CC_DESIGN_APPROVAL ( #131, ( #32 ) ) ;
#94 = CARTESIAN_POINT ( 'NONE',  ( 0.000000000000000000, 0.000000000000000000, 0.000000000000000000 ) ) ;
#95 = ORGANIZATION ( 'NEURÈENÝ', 'NEURÈENÝ', '' ) ;
#96 = DIRECTION ( 'NONE',  ( 1.000000000000000000, 0.000000000000000000, -0.000000000000000000 ) ) ;
#97 = ADVANCED_FACE ( 'NONE', ( #100 ), #81, .T. ) ;
#98 = CC_DESIGN_DATE_AND_TIME_ASSIGNMENT ( #43, #128, ( #191 ) ) ;
#99 = CARTESIAN_POINT ( 'NONE',  ( 0.000000000000000000, 0.000000000000000000, 102.0000000000000142 ) ) ;
#100 = FACE_OUTER_BOUND ( 'NONE', #84, .T. ) ;
#101 = DESIGN_CONTEXT ( 'detailed design', #53, 'design' ) ;
#102 = ORIENTED_EDGE ( 'NONE', *, *, #115, .F. ) ;
#103 = COORDINATED_UNIVERSAL_TIME_OFFSET ( 1, 0, .AHEAD. ) ;
#104 = PERSON_AND_ORGANIZATION ( #248, #95 ) ;
#105 = DIRECTION ( 'NONE',  ( -0.000000000000000000, -0.000000000000000000, -1.000000000000000000 ) ) ;
#106 = CIRCLE ( 'NONE', #61, 1.250000000000000000 ) ;
#107 = DATE_AND_TIME ( #25, #149 ) ;
#108 = DIRECTION ( 'NONE',  ( -0.000000000000000000, -0.000000000000000000, -1.000000000000000000 ) ) ;
#109 = CALENDAR_DATE ( 2022, 7, 7 ) ;
#110 = CARTESIAN_POINT ( 'NONE',  ( 0.000000000000000000, 0.000000000000000000, 2.000000000000000000 ) ) ;
#111 = PERSON_AND_ORGANIZATION ( #248, #95 ) ;
#112 = CARTESIAN_POINT ( 'NONE',  ( -1.250000000000000000, 0.000000000000000000, 102.0000000000000142 ) ) ;
#113 = CARTESIAN_POINT ( 'NONE',  ( 0.000000000000000000, 0.000000000000000000, 102.0000000000000142 ) ) ;
#114 = CC_DESIGN_APPROVAL ( #197, ( #191 ) ) ;
#115 = EDGE_CURVE ( 'NONE', #208, #140, #218, .T. ) ;
#116 = CARTESIAN_POINT ( 'NONE',  ( 0.000000000000000000, 0.000000000000000000, 2.000000000000000000 ) ) ;
#117 = DATE_AND_TIME ( #2, #62 ) ;
#118 = EDGE_CURVE ( 'NONE', #235, #162, #47, .T. ) ;
#119 = CARTESIAN_POINT ( 'NONE',  ( 2.500000000000000000, 3.061616997868383141E-16, 2.000000000000000000 ) ) ;
#120 = SHAPE_DEFINITION_REPRESENTATION ( #204, #14 ) ;
#121 = PLANE ( 'NONE',  #158 ) ;
#122 = ORIENTED_EDGE ( 'NONE', *, *, #118, .F. ) ;
#123 = APPLICATION_PROTOCOL_DEFINITION ( 'international standard', 'config_control_design', 1994, #79 ) ;
#124 = EDGE_CURVE ( 'NONE', #194, #240, #193, .T. ) ;
#125 = PERSON_AND_ORGANIZATION_ROLE ( 'creator' ) ;
#126 = ORIENTED_EDGE ( 'NONE', *, *, #227, .T. ) ;
#127 = FACE_OUTER_BOUND ( 'NONE', #255, .T. ) ;
#128 = DATE_TIME_ROLE ( 'classification_date' ) ;
#129 = FACE_OUTER_BOUND ( 'NONE', #20, .T. ) ;
#130 = PERSON_AND_ORGANIZATION_ROLE ( 'creator' ) ;
#131 = APPROVAL ( #3, 'NEURÈENÝ' ) ;
#132 = CARTESIAN_POINT ( 'NONE',  ( 2.500000000000000000, 3.061616997868383141E-16, 0.000000000000000000 ) ) ;
#133 = ORIENTED_EDGE ( 'NONE', *, *, #227, .F. ) ;
#134 = CC_DESIGN_PERSON_AND_ORGANIZATION_ASSIGNMENT ( #90, #125, ( #141 ) ) ;
#135 = CARTESIAN_POINT ( 'NONE',  ( -2.500000000000000000, 0.000000000000000000, 2.000000000000000000 ) ) ;
#136 = DIRECTION ( 'NONE',  ( 0.000000000000000000, 0.000000000000000000, 1.000000000000000000 ) ) ;
#137 = EDGE_CURVE ( 'NONE', #162, #235, #228, .T. ) ;
#138 = APPROVAL_ROLE ( '' ) ;
#139 = CARTESIAN_POINT ( 'NONE',  ( -2.500000000000000000, 0.000000000000000000, 2.000000000000000000 ) ) ;
#140 = VERTEX_POINT ( 'NONE', #15 ) ;
#141 = PRODUCT_DEFINITION ( 'NEZNÁMÝ', '', #32, #101 ) ;
#142 = FACE_OUTER_BOUND ( 'NONE', #237, .T. ) ;
#143 = ORIENTED_EDGE ( 'NONE', *, *, #58, .F. ) ;
#144 =( NAMED_UNIT ( * ) SI_UNIT ( $, .STERADIAN. ) SOLID_ANGLE_UNIT ( ) );
#145 = EDGE_LOOP ( 'NONE', ( #186, #181, #126, #102 ) ) ;
#146 = PERSON_AND_ORGANIZATION ( #248, #95 ) ;
#147 = CARTESIAN_POINT ( 'NONE',  ( 0.000000000000000000, 0.000000000000000000, 0.000000000000000000 ) ) ;
#148 = COORDINATED_UNIVERSAL_TIME_OFFSET ( 1, 0, .AHEAD. ) ;
#149 = LOCAL_TIME ( 19, 58, 57.00000000000000000, #242 ) ;
#150 = CARTESIAN_POINT ( 'NONE',  ( 0.000000000000000000, 0.000000000000000000, 2.000000000000000000 ) ) ;
#151 = LOCAL_TIME ( 19, 58, 57.00000000000000000, #148 ) ;
#152 = CARTESIAN_POINT ( 'NONE',  ( 0.000000000000000000, 0.000000000000000000, 102.0000000000000142 ) ) ;
#153 = CARTESIAN_POINT ( 'NONE',  ( 1.250000000000000000, 1.530808498934191571E-16, 2.000000000000000000 ) ) ;
#154 = APPROVAL_DATE_TIME ( #117, #197 ) ;
#155 = ORIENTED_EDGE ( 'NONE', *, *, #124, .F. ) ;
#156 = ORIENTED_EDGE ( 'NONE', *, *, #173, .T. ) ;
#157 = CARTESIAN_POINT ( 'NONE',  ( 0.000000000000000000, 0.000000000000000000, 2.000000000000000000 ) ) ;
#158 = AXIS2_PLACEMENT_3D ( 'NONE', #99, #199, #252 ) ;
#159 = LINE ( 'NONE', #119, #201 ) ;
#160 = COORDINATED_UNIVERSAL_TIME_OFFSET ( 1, 0, .AHEAD. ) ;
#161 = EDGE_CURVE ( 'NONE', #80, #208, #71, .T. ) ;
#162 = VERTEX_POINT ( 'NONE', #132 ) ;
#163 = CALENDAR_DATE ( 2022, 7, 7 ) ;
#164 = PRODUCT ( 'f774', 'f774', '', ( #63 ) ) ;
#165 = APPROVAL_ROLE ( '' ) ;
#166 = FACE_BOUND ( 'NONE', #82, .T. ) ;
#167 = ORIENTED_EDGE ( 'NONE', *, *, #185, .F. ) ;
#168 = EDGE_CURVE ( 'NONE', #208, #80, #106, .T. ) ;
#169 = DIRECTION ( 'NONE',  ( 0.000000000000000000, 0.000000000000000000, 1.000000000000000000 ) ) ;
#170 = DIRECTION ( 'NONE',  ( 1.000000000000000000, 0.000000000000000000, 0.000000000000000000 ) ) ;
#171 = CIRCLE ( 'NONE', #23, 1.250000000000000000 ) ;
#172 = AXIS2_PLACEMENT_3D ( 'NONE', #113, #88, #17 ) ;
#173 = EDGE_CURVE ( 'NONE', #140, #241, #254, .T. ) ;
#174 = DIRECTION ( 'NONE',  ( 1.000000000000000000, 0.000000000000000000, 0.000000000000000000 ) ) ;
#175 = APPROVAL_PERSON_ORGANIZATION ( #146, #131, #165 ) ;
#176 = CARTESIAN_POINT ( 'NONE',  ( 0.000000000000000000, 0.000000000000000000, 102.0000000000000142 ) ) ;
#177 = ORIENTED_EDGE ( 'NONE', *, *, #168, .F. ) ;
#178 = ADVANCED_FACE ( 'NONE', ( #129 ), #73, .T. ) ;
#179 = CALENDAR_DATE ( 2022, 7, 7 ) ;
#180 = AXIS2_PLACEMENT_3D ( 'NONE', #94, #169, #170 ) ;
#181 = ORIENTED_EDGE ( 'NONE', *, *, #185, .T. ) ;
#182 = ORIENTED_EDGE ( 'NONE', *, *, #137, .F. ) ;
#183 = PERSON_AND_ORGANIZATION_ROLE ( 'design_owner' ) ;
#184 = PERSON_AND_ORGANIZATION ( #248, #95 ) ;
#185 = EDGE_CURVE ( 'NONE', #80, #241, #232, .T. ) ;
#186 = ORIENTED_EDGE ( 'NONE', *, *, #161, .F. ) ;
#187 = PLANE ( 'NONE',  #233 ) ;
#188 = PERSON_AND_ORGANIZATION ( #248, #95 ) ;
#189 = CYLINDRICAL_SURFACE ( 'NONE', #213, 1.250000000000000000 ) ;
#190 = CARTESIAN_POINT ( 'NONE',  ( -2.500000000000000000, 0.000000000000000000, 0.000000000000000000 ) ) ;
#191 = SECURITY_CLASSIFICATION ( '', '', #92 ) ;
#192 = ADVANCED_FACE ( 'NONE', ( #127 ), #187, .F. ) ;
#193 = CIRCLE ( 'NONE', #74, 2.500000000000000000 ) ;
#194 = VERTEX_POINT ( 'NONE', #135 ) ;
#195 = DIRECTION ( 'NONE',  ( -1.000000000000000000, 0.000000000000000000, 0.000000000000000000 ) ) ;
#196 = VECTOR ( 'NONE', #108, 1000.000000000000000 ) ;
#197 = APPROVAL ( #60, 'NEURÈENÝ' ) ;
#198 = DIRECTION ( 'NONE',  ( -0.000000000000000000, -0.000000000000000000, -1.000000000000000000 ) ) ;
#199 = DIRECTION ( 'NONE',  ( 0.000000000000000000, 0.000000000000000000, 1.000000000000000000 ) ) ;
#200 = APPLICATION_PROTOCOL_DEFINITION ( 'international standard', 'config_control_design', 1994, #53 ) ;
#201 = VECTOR ( 'NONE', #251, 1000.000000000000000 ) ;
#202 = FACE_OUTER_BOUND ( 'NONE', #145, .T. ) ;
#203 = AXIS2_PLACEMENT_3D ( 'NONE', #220, #27, #13 ) ;
#204 = PRODUCT_DEFINITION_SHAPE ( 'NONE', 'NONE',  #141 ) ;
#205 = DIRECTION ( 'NONE',  ( -1.000000000000000000, 0.000000000000000000, 0.000000000000000000 ) ) ;
#206 = PERSON_AND_ORGANIZATION_ROLE ( 'design_supplier' ) ;
#207 = CC_DESIGN_SECURITY_CLASSIFICATION ( #191, ( #32 ) ) ;
#208 = VERTEX_POINT ( 'NONE', #112 ) ;
#209 = DIRECTION ( 'NONE',  ( 1.000000000000000000, 0.000000000000000000, 0.000000000000000000 ) ) ;
#210 = DIRECTION ( 'NONE',  ( 0.000000000000000000, 0.000000000000000000, 1.000000000000000000 ) ) ;
#211 = VECTOR ( 'NONE', #215, 1000.000000000000000 ) ;
#212 = ADVANCED_FACE ( 'NONE', ( #202 ), #189, .T. ) ;
#213 = AXIS2_PLACEMENT_3D ( 'NONE', #152, #91, #230 ) ;
#214 = APPROVAL_PERSON_ORGANIZATION ( #83, #197, #138 ) ;
#215 = DIRECTION ( 'NONE',  ( -0.000000000000000000, -0.000000000000000000, -1.000000000000000000 ) ) ;
#216 = LINE ( 'NONE', #139, #211 ) ;
#217 = CC_DESIGN_PERSON_AND_ORGANIZATION_ASSIGNMENT ( #104, #223, ( #191 ) ) ;
#218 = LINE ( 'NONE', #39, #10 ) ;
#219 = ORIENTED_EDGE ( 'NONE', *, *, #11, .T. ) ;
#220 = CARTESIAN_POINT ( 'NONE',  ( 0.000000000000000000, 0.000000000000000000, 0.000000000000000000 ) ) ;
#221 = DATE_AND_TIME ( #163, #16 ) ;
#222 = ADVANCED_FACE ( 'NONE', ( #166, #246 ), #69, .T. ) ;
#223 = PERSON_AND_ORGANIZATION_ROLE ( 'classification_officer' ) ;
#224 = DIRECTION ( 'NONE',  ( 0.000000000000000000, 0.000000000000000000, 1.000000000000000000 ) ) ;
#225 = DATE_AND_TIME ( #109, #151 ) ;
#226 = DIRECTION ( 'NONE',  ( 1.000000000000000000, 0.000000000000000000, 0.000000000000000000 ) ) ;
#227 = EDGE_CURVE ( 'NONE', #241, #140, #171, .T. ) ;
#228 = CIRCLE ( 'NONE', #180, 2.500000000000000000 ) ;
#229 = AXIS2_PLACEMENT_3D ( 'NONE', #150, #136, #24 ) ;
#230 = DIRECTION ( 'NONE',  ( -1.000000000000000000, 0.000000000000000000, 0.000000000000000000 ) ) ;
#231 = AXIS2_PLACEMENT_3D ( 'NONE', #157, #239, #57 ) ;
#232 = LINE ( 'NONE', #30, #196 ) ;
#233 = AXIS2_PLACEMENT_3D ( 'NONE', #26, #12, #96 ) ;
#234 = AXIS2_PLACEMENT_3D ( 'NONE', #176, #105, #195 ) ;
#235 = VERTEX_POINT ( 'NONE', #190 ) ;
#236 = APPROVAL_PERSON_ORGANIZATION ( #184, #77, #85 ) ;
#237 = EDGE_LOOP ( 'NONE', ( #167, #177, #253, #156 ) ) ;
#238 = CC_DESIGN_PERSON_AND_ORGANIZATION_ASSIGNMENT ( #41, #183, ( #164 ) ) ;
#239 = DIRECTION ( 'NONE',  ( -0.000000000000000000, -0.000000000000000000, -1.000000000000000000 ) ) ;
#240 = VERTEX_POINT ( 'NONE', #75 ) ;
#241 = VERTEX_POINT ( 'NONE', #153 ) ;
#242 = COORDINATED_UNIVERSAL_TIME_OFFSET ( 1, 0, .AHEAD. ) ;
#243 = COORDINATED_UNIVERSAL_TIME_OFFSET ( 1, 0, .AHEAD. ) ;
#244 = AXIS2_PLACEMENT_3D ( 'NONE', #147, #52, #209 ) ;
#245 = CARTESIAN_POINT ( 'NONE',  ( 0.000000000000000000, 0.000000000000000000, 2.000000000000000000 ) ) ;
#246 = FACE_OUTER_BOUND ( 'NONE', #38, .T. ) ;
#247 = CC_DESIGN_PERSON_AND_ORGANIZATION_ASSIGNMENT ( #188, #130, ( #32 ) ) ;
#248 = PERSON ( 'NEURÈENÝ', 'NEURÈENÝ', 'NEURÈENÝ', ('NEURÈENÝ'), ('NEURÈENÝ'), ('NEURÈENÝ') ) ;
#249 = DIRECTION ( 'NONE',  ( 1.000000000000000000, 0.000000000000000000, 0.000000000000000000 ) ) ;
#250 = DIRECTION ( 'NONE',  ( 0.000000000000000000, 0.000000000000000000, 1.000000000000000000 ) ) ;
#251 = DIRECTION ( 'NONE',  ( -0.000000000000000000, -0.000000000000000000, -1.000000000000000000 ) ) ;
#252 = DIRECTION ( 'NONE',  ( 1.000000000000000000, 0.000000000000000000, -0.000000000000000000 ) ) ;
#253 = ORIENTED_EDGE ( 'NONE', *, *, #115, .T. ) ;
#254 = CIRCLE ( 'NONE', #76, 1.250000000000000000 ) ;
#255 = EDGE_LOOP ( 'NONE', ( #122, #182 ) ) ;
ENDSEC;
END-ISO-10303-21;
