ISO-10303-21;
HEADER;
FILE_DESCRIPTION (( 'STEP AP203' ),
    '1' );
FILE_NAME ('819c.STEP',
    '2022-07-07T17:50:15',
    ( '' ),
    ( '' ),
    'SwSTEP 2.0',
    'SolidWorks 2019',
    '' );
FILE_SCHEMA (( 'CONFIG_CONTROL_DESIGN' ));
ENDSEC;

DATA;
#1 = APPROVAL_STATUS ( 'not_yet_approved' ) ;
#2 = PERSON_AND_ORGANIZATION ( #166, #140 ) ;
#3 = EDGE_LOOP ( 'NONE', ( #246, #241, #88, #180 ) ) ;
#4 = APPROVAL ( #252, 'NEURÈENÝ' ) ;
#5 = DIRECTION ( 'NONE',  ( 1.000000000000000000, 0.000000000000000000, 0.000000000000000000 ) ) ;
#6 = CYLINDRICAL_SURFACE ( 'NONE', #9, 2.100000000000000089 ) ;
#7 = LINE ( 'NONE', #85, #185 ) ;
#8 = DIRECTION ( 'NONE',  ( 1.000000000000000000, 0.000000000000000000, -0.000000000000000000 ) ) ;
#9 = AXIS2_PLACEMENT_3D ( 'NONE', #230, #90, #31 ) ;
#10 = CARTESIAN_POINT ( 'NONE',  ( 0.000000000000000000, 0.000000000000000000, 3.000000000000000000 ) ) ;
#11 = PLANE ( 'NONE',  #106 ) ;
#12 = CARTESIAN_POINT ( 'NONE',  ( 0.000000000000000000, 0.000000000000000000, 3.000000000000000000 ) ) ;
#13 = CIRCLE ( 'NONE', #79, 2.100000000000000089 ) ;
#14 = CIRCLE ( 'NONE', #20, 2.100000000000000089 ) ;
#15 = AXIS2_PLACEMENT_3D ( 'NONE', #36, #251, #37 ) ;
#16 = DATE_TIME_ROLE ( 'creation_date' ) ;
#17 = EDGE_LOOP ( 'NONE', ( #28, #30, #116, #102 ) ) ;
#18 = APPROVAL_DATE_TIME ( #233, #4 ) ;
#19 = PERSON_AND_ORGANIZATION ( #166, #140 ) ;
#20 = AXIS2_PLACEMENT_3D ( 'NONE', #84, #164, #68 ) ;
#21 =( GEOMETRIC_REPRESENTATION_CONTEXT ( 3 ) GLOBAL_UNCERTAINTY_ASSIGNED_CONTEXT ( ( #76 ) ) GLOBAL_UNIT_ASSIGNED_CONTEXT ( ( #165, #59, #80 ) ) REPRESENTATION_CONTEXT ( 'NONE', 'WORKASPACE' ) );
#22 = CIRCLE ( 'NONE', #159, 4.000000000000000000 ) ;
#23 = ADVANCED_BREP_SHAPE_REPRESENTATION ( '819c', ( #238, #115 ), #21 ) ;
#24 = SECURITY_CLASSIFICATION_LEVEL ( 'unclassified' ) ;
#25 = CC_DESIGN_PERSON_AND_ORGANIZATION_ASSIGNMENT ( #148, #174, ( #178 ) ) ;
#26 = CALENDAR_DATE ( 2022, 7, 7 ) ;
#27 = DIRECTION ( 'NONE',  ( 1.000000000000000000, 0.000000000000000000, -0.000000000000000000 ) ) ;
#28 = ORIENTED_EDGE ( 'NONE', *, *, #151, .F. ) ;
#29 = EDGE_CURVE ( 'NONE', #222, #63, #13, .T. ) ;
#30 = ORIENTED_EDGE ( 'NONE', *, *, #95, .F. ) ;
#31 = DIRECTION ( 'NONE',  ( -1.000000000000000000, 0.000000000000000000, 0.000000000000000000 ) ) ;
#32 = CARTESIAN_POINT ( 'NONE',  ( 0.000000000000000000, 0.000000000000000000, 3.000000000000000000 ) ) ;
#33 = ORIENTED_EDGE ( 'NONE', *, *, #234, .F. ) ;
#34 = DIRECTION ( 'NONE',  ( 1.000000000000000000, 0.000000000000000000, 0.000000000000000000 ) ) ;
#35 = EDGE_LOOP ( 'NONE', ( #33, #46, #228, #118 ) ) ;
#36 = CARTESIAN_POINT ( 'NONE',  ( 0.000000000000000000, 0.000000000000000000, 3.000000000000000000 ) ) ;
#37 = DIRECTION ( 'NONE',  ( 1.000000000000000000, 0.000000000000000000, 0.000000000000000000 ) ) ;
#38 = APPLICATION_CONTEXT ( 'configuration controlled 3d designs of mechanical parts and assemblies' ) ;
#39 = EDGE_CURVE ( 'NONE', #123, #63, #7, .T. ) ;
#40 = CALENDAR_DATE ( 2022, 7, 7 ) ;
#41 = LOCAL_TIME ( 19, 50, 15.00000000000000000, #146 ) ;
#42 = CALENDAR_DATE ( 2022, 7, 7 ) ;
#43 = CC_DESIGN_SECURITY_CLASSIFICATION ( #49, ( #127 ) ) ;
#44 = PERSON_AND_ORGANIZATION_ROLE ( 'creator' ) ;
#45 = DATE_AND_TIME ( #42, #231 ) ;
#46 = ORIENTED_EDGE ( 'NONE', *, *, #170, .T. ) ;
#47 = ORIENTED_EDGE ( 'NONE', *, *, #29, .F. ) ;
#48 = FACE_OUTER_BOUND ( 'NONE', #17, .T. ) ;
#49 = SECURITY_CLASSIFICATION ( '', '', #24 ) ;
#50 = DIRECTION ( 'NONE',  ( -0.000000000000000000, -0.000000000000000000, -1.000000000000000000 ) ) ;
#51 = CARTESIAN_POINT ( 'NONE',  ( 0.000000000000000000, 0.000000000000000000, 0.000000000000000000 ) ) ;
#52 = DIRECTION ( 'NONE',  ( 1.000000000000000000, 0.000000000000000000, 0.000000000000000000 ) ) ;
#53 = CARTESIAN_POINT ( 'NONE',  ( 0.000000000000000000, 0.000000000000000000, 203.0000000000000000 ) ) ;
#54 = AXIS2_PLACEMENT_3D ( 'NONE', #177, #224, #5 ) ;
#55 = CARTESIAN_POINT ( 'NONE',  ( 4.000000000000000000, 4.898587196589412829E-16, 3.000000000000000000 ) ) ;
#56 = PRODUCT_RELATED_PRODUCT_CATEGORY ( 'detail', '', ( #178 ) ) ;
#57 = APPROVAL_PERSON_ORGANIZATION ( #58, #4, #254 ) ;
#58 = PERSON_AND_ORGANIZATION ( #166, #140 ) ;
#59 =( NAMED_UNIT ( * ) PLANE_ANGLE_UNIT ( ) SI_UNIT ( $, .RADIAN. ) );
#60 = APPROVAL_ROLE ( '' ) ;
#61 = APPROVAL_STATUS ( 'not_yet_approved' ) ;
#62 = CC_DESIGN_DATE_AND_TIME_ASSIGNMENT ( #168, #236, ( #49 ) ) ;
#63 = VERTEX_POINT ( 'NONE', #158 ) ;
#64 = ORIENTED_EDGE ( 'NONE', *, *, #181, .T. ) ;
#65 = DIRECTION ( 'NONE',  ( 1.000000000000000000, 0.000000000000000000, -0.000000000000000000 ) ) ;
#66 = CIRCLE ( 'NONE', #54, 2.100000000000000089 ) ;
#67 = ADVANCED_FACE ( 'NONE', ( #244 ), #205, .T. ) ;
#68 = DIRECTION ( 'NONE',  ( 1.000000000000000000, 0.000000000000000000, 0.000000000000000000 ) ) ;
#69 = CARTESIAN_POINT ( 'NONE',  ( -4.000000000000000000, 0.000000000000000000, 3.000000000000000000 ) ) ;
#70 = DIRECTION ( 'NONE',  ( 1.000000000000000000, 0.000000000000000000, 0.000000000000000000 ) ) ;
#71 = APPROVAL ( #1, 'NEURÈENÝ' ) ;
#72 = CYLINDRICAL_SURFACE ( 'NONE', #130, 4.000000000000000000 ) ;
#73 = EDGE_CURVE ( 'NONE', #63, #222, #66, .T. ) ;
#74 = APPROVAL_PERSON_ORGANIZATION ( #216, #211, #133 ) ;
#75 = CC_DESIGN_APPROVAL ( #71, ( #111 ) ) ;
#76 = UNCERTAINTY_MEASURE_WITH_UNIT (LENGTH_MEASURE( 1.000000000000000082E-05 ), #165, 'distance_accuracy_value', 'NONE');
#77 = VECTOR ( 'NONE', #229, 1000.000000000000000 ) ;
#78 = APPLICATION_PROTOCOL_DEFINITION ( 'international standard', 'config_control_design', 1994, #38 ) ;
#79 = AXIS2_PLACEMENT_3D ( 'NONE', #32, #227, #52 ) ;
#80 =( NAMED_UNIT ( * ) SI_UNIT ( $, .STERADIAN. ) SOLID_ANGLE_UNIT ( ) );
#81 = PERSON_AND_ORGANIZATION ( #166, #140 ) ;
#82 = DIRECTION ( 'NONE',  ( -0.000000000000000000, -0.000000000000000000, -1.000000000000000000 ) ) ;
#83 = DIRECTION ( 'NONE',  ( 0.000000000000000000, 0.000000000000000000, 1.000000000000000000 ) ) ;
#84 = CARTESIAN_POINT ( 'NONE',  ( 0.000000000000000000, 0.000000000000000000, 203.0000000000000000 ) ) ;
#85 = CARTESIAN_POINT ( 'NONE',  ( -2.100000000000000089, 0.000000000000000000, 203.0000000000000000 ) ) ;
#86 = FACE_OUTER_BOUND ( 'NONE', #135, .T. ) ;
#87 = EDGE_LOOP ( 'NONE', ( #136, #199, #100, #204 ) ) ;
#88 = ORIENTED_EDGE ( 'NONE', *, *, #207, .T. ) ;
#89 = FACE_OUTER_BOUND ( 'NONE', #239, .T. ) ;
#90 = DIRECTION ( 'NONE',  ( -0.000000000000000000, -0.000000000000000000, -1.000000000000000000 ) ) ;
#91 = SHAPE_DEFINITION_REPRESENTATION ( #101, #23 ) ;
#92 = APPROVAL_DATE_TIME ( #93, #211 ) ;
#93 = DATE_AND_TIME ( #26, #149 ) ;
#94 = CC_DESIGN_PERSON_AND_ORGANIZATION_ASSIGNMENT ( #196, #169, ( #127 ) ) ;
#95 = EDGE_CURVE ( 'NONE', #123, #161, #213, .T. ) ;
#96 = DIRECTION ( 'NONE',  ( 0.000000000000000000, 0.000000000000000000, 1.000000000000000000 ) ) ;
#97 = DIRECTION ( 'NONE',  ( 1.000000000000000000, 0.000000000000000000, 0.000000000000000000 ) ) ;
#98 = COORDINATED_UNIVERSAL_TIME_OFFSET ( 1, 0, .AHEAD. ) ;
#99 = ORIENTED_EDGE ( 'NONE', *, *, #234, .T. ) ;
#100 = ORIENTED_EDGE ( 'NONE', *, *, #29, .T. ) ;
#101 = PRODUCT_DEFINITION_SHAPE ( 'NONE', 'NONE',  #111 ) ;
#102 = ORIENTED_EDGE ( 'NONE', *, *, #73, .T. ) ;
#103 = LINE ( 'NONE', #125, #235 ) ;
#104 = FACE_OUTER_BOUND ( 'NONE', #206, .T. ) ;
#105 = CARTESIAN_POINT ( 'NONE',  ( 2.100000000000000089, 2.571758278209441957E-16, 203.0000000000000000 ) ) ;
#106 = AXIS2_PLACEMENT_3D ( 'NONE', #53, #186, #65 ) ;
#107 = ORIENTED_EDGE ( 'NONE', *, *, #217, .F. ) ;
#108 = DIRECTION ( 'NONE',  ( -0.000000000000000000, -0.000000000000000000, -1.000000000000000000 ) ) ;
#109 = CYLINDRICAL_SURFACE ( 'NONE', #179, 2.100000000000000089 ) ;
#110 = ADVANCED_FACE ( 'NONE', ( #156, #104 ), #184, .T. ) ;
#111 = PRODUCT_DEFINITION ( 'NEZNÁMÝ', '', #127, #191 ) ;
#112 = LOCAL_TIME ( 19, 50, 15.00000000000000000, #232 ) ;
#113 = PERSON_AND_ORGANIZATION_ROLE ( 'design_supplier' ) ;
#114 = COORDINATED_UNIVERSAL_TIME_OFFSET ( 1, 0, .AHEAD. ) ;
#115 = AXIS2_PLACEMENT_3D ( 'NONE', #173, #96, #97 ) ;
#116 = ORIENTED_EDGE ( 'NONE', *, *, #39, .T. ) ;
#117 = CARTESIAN_POINT ( 'NONE',  ( 0.000000000000000000, 0.000000000000000000, 3.000000000000000000 ) ) ;
#118 = ORIENTED_EDGE ( 'NONE', *, *, #207, .F. ) ;
#119 = CARTESIAN_POINT ( 'NONE',  ( 0.000000000000000000, 0.000000000000000000, 203.0000000000000000 ) ) ;
#120 = CARTESIAN_POINT ( 'NONE',  ( 0.000000000000000000, 0.000000000000000000, 203.0000000000000000 ) ) ;
#121 = DIRECTION ( 'NONE',  ( 0.000000000000000000, 0.000000000000000000, 1.000000000000000000 ) ) ;
#122 = ORIENTED_EDGE ( 'NONE', *, *, #249, .T. ) ;
#123 = VERTEX_POINT ( 'NONE', #247 ) ;
#124 = CARTESIAN_POINT ( 'NONE',  ( 4.000000000000000000, 4.898587196589412829E-16, 3.000000000000000000 ) ) ;
#125 = CARTESIAN_POINT ( 'NONE',  ( -4.000000000000000000, 0.000000000000000000, 3.000000000000000000 ) ) ;
#126 = VERTEX_POINT ( 'NONE', #69 ) ;
#127 = PRODUCT_DEFINITION_FORMATION_WITH_SPECIFIED_SOURCE ( 'LIBOVOLNÝ', '', #178, .NOT_KNOWN. ) ;
#128 = APPLICATION_CONTEXT ( 'configuration controlled 3d designs of mechanical parts and assemblies' ) ;
#129 = AXIS2_PLACEMENT_3D ( 'NONE', #10, #162, #27 ) ;
#130 = AXIS2_PLACEMENT_3D ( 'NONE', #12, #187, #143 ) ;
#131 = EDGE_CURVE ( 'NONE', #192, #221, #22, .T. ) ;
#132 = CALENDAR_DATE ( 2022, 7, 7 ) ;
#133 = APPROVAL_ROLE ( '' ) ;
#134 = AXIS2_PLACEMENT_3D ( 'NONE', #51, #121, #70 ) ;
#135 = EDGE_LOOP ( 'NONE', ( #154, #107 ) ) ;
#136 = ORIENTED_EDGE ( 'NONE', *, *, #181, .F. ) ;
#137 = DIRECTION ( 'NONE',  ( -0.000000000000000000, -0.000000000000000000, -1.000000000000000000 ) ) ;
#138 = DIRECTION ( 'NONE',  ( -1.000000000000000000, 0.000000000000000000, 0.000000000000000000 ) ) ;
#139 = CARTESIAN_POINT ( 'NONE',  ( -4.000000000000000000, 0.000000000000000000, 0.000000000000000000 ) ) ;
#140 = ORGANIZATION ( 'NEURÈENÝ', 'NEURÈENÝ', '' ) ;
#141 = CARTESIAN_POINT ( 'NONE',  ( 0.000000000000000000, 0.000000000000000000, 0.000000000000000000 ) ) ;
#142 = DIRECTION ( 'NONE',  ( 0.000000000000000000, 0.000000000000000000, 1.000000000000000000 ) ) ;
#143 = DIRECTION ( 'NONE',  ( -1.000000000000000000, 0.000000000000000000, 0.000000000000000000 ) ) ;
#144 = CC_DESIGN_PERSON_AND_ORGANIZATION_ASSIGNMENT ( #2, #237, ( #49 ) ) ;
#145 = ADVANCED_FACE ( 'NONE', ( #163 ), #6, .T. ) ;
#146 = COORDINATED_UNIVERSAL_TIME_OFFSET ( 1, 0, .AHEAD. ) ;
#147 = PERSON_AND_ORGANIZATION ( #166, #140 ) ;
#148 = PERSON_AND_ORGANIZATION ( #166, #140 ) ;
#149 = LOCAL_TIME ( 19, 50, 15.00000000000000000, #114 ) ;
#150 = DATE_AND_TIME ( #132, #225 ) ;
#151 = EDGE_CURVE ( 'NONE', #161, #222, #250, .T. ) ;
#152 = AXIS2_PLACEMENT_3D ( 'NONE', #248, #242, #8 ) ;
#153 = ADVANCED_FACE ( 'NONE', ( #89 ), #11, .T. ) ;
#154 = ORIENTED_EDGE ( 'NONE', *, *, #131, .F. ) ;
#155 = APPROVAL_PERSON_ORGANIZATION ( #81, #71, #60 ) ;
#156 = FACE_BOUND ( 'NONE', #183, .T. ) ;
#157 = CARTESIAN_POINT ( 'NONE',  ( 4.000000000000000000, 4.898587196589412829E-16, 0.000000000000000000 ) ) ;
#158 = CARTESIAN_POINT ( 'NONE',  ( -2.100000000000000089, 0.000000000000000000, 3.000000000000000000 ) ) ;
#159 = AXIS2_PLACEMENT_3D ( 'NONE', #141, #208, #34 ) ;
#160 = LINE ( 'NONE', #124, #167 ) ;
#161 = VERTEX_POINT ( 'NONE', #182 ) ;
#162 = DIRECTION ( 'NONE',  ( 0.000000000000000000, 0.000000000000000000, 1.000000000000000000 ) ) ;
#163 = FACE_OUTER_BOUND ( 'NONE', #87, .T. ) ;
#164 = DIRECTION ( 'NONE',  ( 0.000000000000000000, 0.000000000000000000, 1.000000000000000000 ) ) ;
#165 =( LENGTH_UNIT ( ) NAMED_UNIT ( * ) SI_UNIT ( .MILLI., .METRE. ) );
#166 = PERSON ( 'NEURÈENÝ', 'NEURÈENÝ', 'NEURÈENÝ', ('NEURÈENÝ'), ('NEURÈENÝ'), ('NEURÈENÝ') ) ;
#167 = VECTOR ( 'NONE', #137, 1000.000000000000000 ) ;
#168 = DATE_AND_TIME ( #218, #41 ) ;
#169 = PERSON_AND_ORGANIZATION_ROLE ( 'creator' ) ;
#170 = EDGE_CURVE ( 'NONE', #201, #221, #160, .T. ) ;
#171 = AXIS2_PLACEMENT_3D ( 'NONE', #117, #82, #138 ) ;
#172 = CC_DESIGN_PERSON_AND_ORGANIZATION_ASSIGNMENT ( #147, #113, ( #127 ) ) ;
#173 = CARTESIAN_POINT ( 'NONE',  ( 0.000000000000000000, 0.000000000000000000, 0.000000000000000000 ) ) ;
#174 = PERSON_AND_ORGANIZATION_ROLE ( 'design_owner' ) ;
#175 = ORIENTED_EDGE ( 'NONE', *, *, #95, .T. ) ;
#176 = ADVANCED_FACE ( 'NONE', ( #86 ), #245, .F. ) ;
#177 = CARTESIAN_POINT ( 'NONE',  ( 0.000000000000000000, 0.000000000000000000, 3.000000000000000000 ) ) ;
#178 = PRODUCT ( '819c', '819c', '', ( #195 ) ) ;
#179 = AXIS2_PLACEMENT_3D ( 'NONE', #119, #108, #203 ) ;
#180 = ORIENTED_EDGE ( 'NONE', *, *, #131, .T. ) ;
#181 = EDGE_CURVE ( 'NONE', #161, #123, #14, .T. ) ;
#182 = CARTESIAN_POINT ( 'NONE',  ( 2.100000000000000089, 2.571758278209441957E-16, 203.0000000000000000 ) ) ;
#183 = EDGE_LOOP ( 'NONE', ( #209, #47 ) ) ;
#184 = PLANE ( 'NONE',  #129 ) ;
#185 = VECTOR ( 'NONE', #50, 1000.000000000000000 ) ;
#186 = DIRECTION ( 'NONE',  ( 0.000000000000000000, 0.000000000000000000, 1.000000000000000000 ) ) ;
#187 = DIRECTION ( 'NONE',  ( -0.000000000000000000, -0.000000000000000000, -1.000000000000000000 ) ) ;
#188 = CIRCLE ( 'NONE', #240, 4.000000000000000000 ) ;
#189 = CARTESIAN_POINT ( 'NONE',  ( 2.100000000000000089, 2.571758278209441957E-16, 3.000000000000000000 ) ) ;
#190 = CC_DESIGN_DATE_AND_TIME_ASSIGNMENT ( #150, #16, ( #111 ) ) ;
#191 = DESIGN_CONTEXT ( 'detailed design', #128, 'design' ) ;
#192 = VERTEX_POINT ( 'NONE', #139 ) ;
#193 = COORDINATED_UNIVERSAL_TIME_OFFSET ( 1, 0, .AHEAD. ) ;
#194 = APPROVAL_DATE_TIME ( #45, #71 ) ;
#195 = MECHANICAL_CONTEXT ( 'NONE', #38, 'mechanical' ) ;
#196 = PERSON_AND_ORGANIZATION ( #166, #140 ) ;
#197 = APPLICATION_PROTOCOL_DEFINITION ( 'international standard', 'config_control_design', 1994, #128 ) ;
#198 = DIRECTION ( 'NONE',  ( 1.000000000000000000, 0.000000000000000000, 0.000000000000000000 ) ) ;
#199 = ORIENTED_EDGE ( 'NONE', *, *, #151, .T. ) ;
#200 = ADVANCED_FACE ( 'NONE', ( #226 ), #72, .T. ) ;
#201 = VERTEX_POINT ( 'NONE', #55 ) ;
#202 = CIRCLE ( 'NONE', #15, 4.000000000000000000 ) ;
#203 = DIRECTION ( 'NONE',  ( -1.000000000000000000, 0.000000000000000000, 0.000000000000000000 ) ) ;
#204 = ORIENTED_EDGE ( 'NONE', *, *, #39, .F. ) ;
#205 = CYLINDRICAL_SURFACE ( 'NONE', #171, 4.000000000000000000 ) ;
#206 = EDGE_LOOP ( 'NONE', ( #122, #99 ) ) ;
#207 = EDGE_CURVE ( 'NONE', #126, #192, #103, .T. ) ;
#208 = DIRECTION ( 'NONE',  ( 0.000000000000000000, 0.000000000000000000, 1.000000000000000000 ) ) ;
#209 = ORIENTED_EDGE ( 'NONE', *, *, #73, .F. ) ;
#210 = DIRECTION ( 'NONE',  ( 1.000000000000000000, 0.000000000000000000, 0.000000000000000000 ) ) ;
#211 = APPROVAL ( #61, 'NEURÈENÝ' ) ;
#212 = DIRECTION ( 'NONE',  ( -0.000000000000000000, -0.000000000000000000, -1.000000000000000000 ) ) ;
#213 = CIRCLE ( 'NONE', #243, 2.100000000000000089 ) ;
#214 = CIRCLE ( 'NONE', #134, 4.000000000000000000 ) ;
#215 = CC_DESIGN_APPROVAL ( #211, ( #127 ) ) ;
#216 = PERSON_AND_ORGANIZATION ( #166, #140 ) ;
#217 = EDGE_CURVE ( 'NONE', #221, #192, #214, .T. ) ;
#218 = CALENDAR_DATE ( 2022, 7, 7 ) ;
#219 = CC_DESIGN_PERSON_AND_ORGANIZATION_ASSIGNMENT ( #19, #44, ( #111 ) ) ;
#220 = CC_DESIGN_APPROVAL ( #4, ( #49 ) ) ;
#221 = VERTEX_POINT ( 'NONE', #157 ) ;
#222 = VERTEX_POINT ( 'NONE', #189 ) ;
#223 = CARTESIAN_POINT ( 'NONE',  ( 0.000000000000000000, 0.000000000000000000, 3.000000000000000000 ) ) ;
#224 = DIRECTION ( 'NONE',  ( 0.000000000000000000, 0.000000000000000000, 1.000000000000000000 ) ) ;
#225 = LOCAL_TIME ( 19, 50, 15.00000000000000000, #98 ) ;
#226 = FACE_OUTER_BOUND ( 'NONE', #3, .T. ) ;
#227 = DIRECTION ( 'NONE',  ( 0.000000000000000000, 0.000000000000000000, 1.000000000000000000 ) ) ;
#228 = ORIENTED_EDGE ( 'NONE', *, *, #217, .T. ) ;
#229 = DIRECTION ( 'NONE',  ( -0.000000000000000000, -0.000000000000000000, -1.000000000000000000 ) ) ;
#230 = CARTESIAN_POINT ( 'NONE',  ( 0.000000000000000000, 0.000000000000000000, 203.0000000000000000 ) ) ;
#231 = LOCAL_TIME ( 19, 50, 15.00000000000000000, #193 ) ;
#232 = COORDINATED_UNIVERSAL_TIME_OFFSET ( 1, 0, .AHEAD. ) ;
#233 = DATE_AND_TIME ( #40, #112 ) ;
#234 = EDGE_CURVE ( 'NONE', #201, #126, #188, .T. ) ;
#235 = VECTOR ( 'NONE', #212, 1000.000000000000000 ) ;
#236 = DATE_TIME_ROLE ( 'classification_date' ) ;
#237 = PERSON_AND_ORGANIZATION_ROLE ( 'classification_officer' ) ;
#238 = MANIFOLD_SOLID_BREP ( 'Pøidat vysunutím3', #253 ) ;
#239 = EDGE_LOOP ( 'NONE', ( #175, #64 ) ) ;
#240 = AXIS2_PLACEMENT_3D ( 'NONE', #223, #142, #210 ) ;
#241 = ORIENTED_EDGE ( 'NONE', *, *, #249, .F. ) ;
#242 = DIRECTION ( 'NONE',  ( 0.000000000000000000, 0.000000000000000000, 1.000000000000000000 ) ) ;
#243 = AXIS2_PLACEMENT_3D ( 'NONE', #120, #83, #198 ) ;
#244 = FACE_OUTER_BOUND ( 'NONE', #35, .T. ) ;
#245 = PLANE ( 'NONE',  #152 ) ;
#246 = ORIENTED_EDGE ( 'NONE', *, *, #170, .F. ) ;
#247 = CARTESIAN_POINT ( 'NONE',  ( -2.100000000000000089, 0.000000000000000000, 203.0000000000000000 ) ) ;
#248 = CARTESIAN_POINT ( 'NONE',  ( 0.000000000000000000, 0.000000000000000000, 0.000000000000000000 ) ) ;
#249 = EDGE_CURVE ( 'NONE', #126, #201, #202, .T. ) ;
#250 = LINE ( 'NONE', #105, #77 ) ;
#251 = DIRECTION ( 'NONE',  ( 0.000000000000000000, 0.000000000000000000, 1.000000000000000000 ) ) ;
#252 = APPROVAL_STATUS ( 'not_yet_approved' ) ;
#253 = CLOSED_SHELL ( 'NONE', ( #145, #67, #200, #110, #176, #255, #153 ) ) ;
#254 = APPROVAL_ROLE ( '' ) ;
#255 = ADVANCED_FACE ( 'NONE', ( #48 ), #109, .T. ) ;
ENDSEC;
END-ISO-10303-21;
