ISO-10303-21;
HEADER;
FILE_DESCRIPTION (( 'STEP AP203' ),
    '1' );
FILE_NAME ('f331.STEP',
    '2022-07-07T17:59:20',
    ( '' ),
    ( '' ),
    'SwSTEP 2.0',
    'SolidWorks 2019',
    '' );
FILE_SCHEMA (( 'CONFIG_CONTROL_DESIGN' ));
ENDSEC;

DATA;
#1 = DIRECTION ( 'NONE',  ( 1.000000000000000000, 0.000000000000000000, -0.000000000000000000 ) ) ;
#2 = DIRECTION ( 'NONE',  ( 1.000000000000000000, 0.000000000000000000, 0.000000000000000000 ) ) ;
#3 = EDGE_CURVE ( 'NONE', #83, #77, #130, .T. ) ;
#4 = DIRECTION ( 'NONE',  ( 0.000000000000000000, 0.000000000000000000, 1.000000000000000000 ) ) ;
#5 = EDGE_LOOP ( 'NONE', ( #89, #168, #165, #24 ) ) ;
#6 = PERSON_AND_ORGANIZATION ( #140, #72 ) ;
#7 = AXIS2_PLACEMENT_3D ( 'NONE', #164, #244, #250 ) ;
#8 = FACE_OUTER_BOUND ( 'NONE', #218, .T. ) ;
#9 = CC_DESIGN_DATE_AND_TIME_ASSIGNMENT ( #73, #154, ( #35 ) ) ;
#10 = CARTESIAN_POINT ( 'NONE',  ( -2.000000000000000000, 0.000000000000000000, 2.000000000000000000 ) ) ;
#11 = APPROVAL_STATUS ( 'not_yet_approved' ) ;
#12 = FACE_OUTER_BOUND ( 'NONE', #210, .T. ) ;
#13 = APPROVAL_STATUS ( 'not_yet_approved' ) ;
#14 = CARTESIAN_POINT ( 'NONE',  ( 0.000000000000000000, 0.000000000000000000, 317.0000000000000000 ) ) ;
#15 = EDGE_LOOP ( 'NONE', ( #66, #147 ) ) ;
#16 = PERSON_AND_ORGANIZATION ( #140, #72 ) ;
#17 = CARTESIAN_POINT ( 'NONE',  ( -1.100000000000000089, 0.000000000000000000, 2.000000000000000000 ) ) ;
#18 = DIRECTION ( 'NONE',  ( 0.000000000000000000, 0.000000000000000000, 1.000000000000000000 ) ) ;
#19 = AXIS2_PLACEMENT_3D ( 'NONE', #243, #30, #208 ) ;
#20 = ADVANCED_FACE ( 'NONE', ( #125 ), #106, .T. ) ;
#21 = ADVANCED_FACE ( 'NONE', ( #183 ), #184, .T. ) ;
#22 = VERTEX_POINT ( 'NONE', #68 ) ;
#23 = CC_DESIGN_PERSON_AND_ORGANIZATION_ASSIGNMENT ( #169, #176, ( #229 ) ) ;
#24 = ORIENTED_EDGE ( 'NONE', *, *, #102, .T. ) ;
#25 = VERTEX_POINT ( 'NONE', #242 ) ;
#26 = DIRECTION ( 'NONE',  ( 0.000000000000000000, 0.000000000000000000, 1.000000000000000000 ) ) ;
#27 = ORIENTED_EDGE ( 'NONE', *, *, #3, .F. ) ;
#28 = APPLICATION_PROTOCOL_DEFINITION ( 'international standard', 'config_control_design', 1994, #199 ) ;
#29 = AXIS2_PLACEMENT_3D ( 'NONE', #204, #4, #1 ) ;
#30 = DIRECTION ( 'NONE',  ( -0.000000000000000000, -0.000000000000000000, -1.000000000000000000 ) ) ;
#31 = PERSON_AND_ORGANIZATION ( #140, #72 ) ;
#32 = CARTESIAN_POINT ( 'NONE',  ( 2.000000000000000000, 2.449293598294706414E-16, 2.000000000000000000 ) ) ;
#33 = ORIENTED_EDGE ( 'NONE', *, *, #145, .T. ) ;
#34 = PERSON_AND_ORGANIZATION_ROLE ( 'design_supplier' ) ;
#35 = SECURITY_CLASSIFICATION ( '', '', #135 ) ;
#36 = DIRECTION ( 'NONE',  ( 1.000000000000000000, 0.000000000000000000, 0.000000000000000000 ) ) ;
#37 = DIRECTION ( 'NONE',  ( 1.000000000000000000, 0.000000000000000000, -0.000000000000000000 ) ) ;
#38 = LOCAL_TIME ( 19, 59, 20.00000000000000000, #156 ) ;
#39 = CC_DESIGN_PERSON_AND_ORGANIZATION_ASSIGNMENT ( #54, #110, ( #209 ) ) ;
#40 = CIRCLE ( 'NONE', #224, 1.100000000000000089 ) ;
#41 = AXIS2_PLACEMENT_3D ( 'NONE', #126, #26, #196 ) ;
#42 = CC_DESIGN_PERSON_AND_ORGANIZATION_ASSIGNMENT ( #172, #193, ( #35 ) ) ;
#43 = APPROVAL_DATE_TIME ( #142, #187 ) ;
#44 = APPROVAL ( #246, 'NEURÈENÝ' ) ;
#45 = AXIS2_PLACEMENT_3D ( 'NONE', #191, #93, #74 ) ;
#46 = DIRECTION ( 'NONE',  ( 1.000000000000000000, 0.000000000000000000, 0.000000000000000000 ) ) ;
#47 = ORIENTED_EDGE ( 'NONE', *, *, #80, .F. ) ;
#48 = CIRCLE ( 'NONE', #255, 1.100000000000000089 ) ;
#49 = CARTESIAN_POINT ( 'NONE',  ( 0.000000000000000000, 0.000000000000000000, 2.000000000000000000 ) ) ;
#50 = DATE_AND_TIME ( #56, #38 ) ;
#51 = DIRECTION ( 'NONE',  ( 1.000000000000000000, 0.000000000000000000, 0.000000000000000000 ) ) ;
#52 = EDGE_LOOP ( 'NONE', ( #27, #223, #33, #240 ) ) ;
#53 = CC_DESIGN_PERSON_AND_ORGANIZATION_ASSIGNMENT ( #6, #34, ( #219 ) ) ;
#54 = PERSON_AND_ORGANIZATION ( #140, #72 ) ;
#55 = CARTESIAN_POINT ( 'NONE',  ( -2.000000000000000000, 0.000000000000000000, 2.000000000000000000 ) ) ;
#56 = CALENDAR_DATE ( 2022, 7, 7 ) ;
#57 = CIRCLE ( 'NONE', #122, 1.100000000000000089 ) ;
#58 = DATE_AND_TIME ( #112, #67 ) ;
#59 = CARTESIAN_POINT ( 'NONE',  ( -2.000000000000000000, 0.000000000000000000, 0.000000000000000000 ) ) ;
#60 = APPROVAL_DATE_TIME ( #92, #63 ) ;
#61 = FACE_OUTER_BOUND ( 'NONE', #15, .T. ) ;
#62 = CC_DESIGN_APPROVAL ( #63, ( #219 ) ) ;
#63 = APPROVAL ( #11, 'NEURÈENÝ' ) ;
#64 = CC_DESIGN_SECURITY_CLASSIFICATION ( #35, ( #219 ) ) ;
#65 = SHAPE_DEFINITION_REPRESENTATION ( #148, #241 ) ;
#66 = ORIENTED_EDGE ( 'NONE', *, *, #102, .F. ) ;
#67 = LOCAL_TIME ( 19, 59, 20.00000000000000000, #78 ) ;
#68 = CARTESIAN_POINT ( 'NONE',  ( 1.100000000000000089, 1.347111479062088503E-16, 317.0000000000000000 ) ) ;
#69 = EDGE_LOOP ( 'NONE', ( #105, #87 ) ) ;
#70 = VERTEX_POINT ( 'NONE', #128 ) ;
#71 = DIRECTION ( 'NONE',  ( 1.000000000000000000, 0.000000000000000000, -0.000000000000000000 ) ) ;
#72 = ORGANIZATION ( 'NEURÈENÝ', 'NEURÈENÝ', '' ) ;
#73 = DATE_AND_TIME ( #117, #237 ) ;
#74 = DIRECTION ( 'NONE',  ( -1.000000000000000000, 0.000000000000000000, 0.000000000000000000 ) ) ;
#75 =( NAMED_UNIT ( * ) SI_UNIT ( $, .STERADIAN. ) SOLID_ANGLE_UNIT ( ) );
#76 = DIRECTION ( 'NONE',  ( -0.000000000000000000, -0.000000000000000000, -1.000000000000000000 ) ) ;
#77 = VERTEX_POINT ( 'NONE', #10 ) ;
#78 = COORDINATED_UNIVERSAL_TIME_OFFSET ( 1, 0, .AHEAD. ) ;
#79 = PLANE ( 'NONE',  #174 ) ;
#80 = EDGE_CURVE ( 'NONE', #70, #22, #48, .T. ) ;
#81 = MANIFOLD_SOLID_BREP ( 'Pøidat vysunutím3', #215 ) ;
#82 = EDGE_CURVE ( 'NONE', #77, #83, #202, .T. ) ;
#83 = VERTEX_POINT ( 'NONE', #91 ) ;
#84 = ORIENTED_EDGE ( 'NONE', *, *, #107, .T. ) ;
#85 = APPROVAL_PERSON_ORGANIZATION ( #31, #44, #158 ) ;
#86 = DIRECTION ( 'NONE',  ( -0.000000000000000000, -0.000000000000000000, -1.000000000000000000 ) ) ;
#87 = ORIENTED_EDGE ( 'NONE', *, *, #137, .T. ) ;
#88 = EDGE_CURVE ( 'NONE', #167, #143, #98, .T. ) ;
#89 = ORIENTED_EDGE ( 'NONE', *, *, #124, .F. ) ;
#90 = DIRECTION ( 'NONE',  ( 1.000000000000000000, 0.000000000000000000, 0.000000000000000000 ) ) ;
#91 = CARTESIAN_POINT ( 'NONE',  ( 2.000000000000000000, 2.449293598294706414E-16, 2.000000000000000000 ) ) ;
#92 = DATE_AND_TIME ( #132, #226 ) ;
#93 = DIRECTION ( 'NONE',  ( -0.000000000000000000, -0.000000000000000000, -1.000000000000000000 ) ) ;
#94 = APPROVAL_PERSON_ORGANIZATION ( #16, #63, #114 ) ;
#95 = APPROVAL_ROLE ( '' ) ;
#96 = DIRECTION ( 'NONE',  ( -0.000000000000000000, -0.000000000000000000, -1.000000000000000000 ) ) ;
#97 = PERSON_AND_ORGANIZATION_ROLE ( 'creator' ) ;
#98 = CIRCLE ( 'NONE', #234, 1.100000000000000089 ) ;
#99 = CYLINDRICAL_SURFACE ( 'NONE', #153, 1.100000000000000089 ) ;
#100 = PLANE ( 'NONE',  #161 ) ;
#101 = CC_DESIGN_APPROVAL ( #44, ( #209 ) ) ;
#102 = EDGE_CURVE ( 'NONE', #251, #25, #120, .T. ) ;
#103 = ADVANCED_FACE ( 'NONE', ( #129 ), #157, .T. ) ;
#104 = ADVANCED_FACE ( 'NONE', ( #212, #8 ), #100, .T. ) ;
#105 = ORIENTED_EDGE ( 'NONE', *, *, #80, .T. ) ;
#106 = PLANE ( 'NONE',  #29 ) ;
#107 = EDGE_CURVE ( 'NONE', #143, #167, #57, .T. ) ;
#108 = CIRCLE ( 'NONE', #179, 2.000000000000000000 ) ;
#109 = EDGE_LOOP ( 'NONE', ( #127, #248 ) ) ;
#110 = PERSON_AND_ORGANIZATION_ROLE ( 'creator' ) ;
#111 = CARTESIAN_POINT ( 'NONE',  ( 0.000000000000000000, 0.000000000000000000, 2.000000000000000000 ) ) ;
#112 = CALENDAR_DATE ( 2022, 7, 7 ) ;
#113 = DIRECTION ( 'NONE',  ( -0.000000000000000000, -0.000000000000000000, -1.000000000000000000 ) ) ;
#114 = APPROVAL_ROLE ( '' ) ;
#115 = CARTESIAN_POINT ( 'NONE',  ( 0.000000000000000000, 0.000000000000000000, 2.000000000000000000 ) ) ;
#116 = VECTOR ( 'NONE', #76, 1000.000000000000000 ) ;
#117 = CALENDAR_DATE ( 2022, 7, 7 ) ;
#118 = DIRECTION ( 'NONE',  ( 0.000000000000000000, 0.000000000000000000, 1.000000000000000000 ) ) ;
#119 = CARTESIAN_POINT ( 'NONE',  ( 1.100000000000000089, 1.347111479062088503E-16, 317.0000000000000000 ) ) ;
#120 = CIRCLE ( 'NONE', #7, 2.000000000000000000 ) ;
#121 = CARTESIAN_POINT ( 'NONE',  ( 0.000000000000000000, 0.000000000000000000, 317.0000000000000000 ) ) ;
#122 = AXIS2_PLACEMENT_3D ( 'NONE', #115, #18, #36 ) ;
#123 = CARTESIAN_POINT ( 'NONE',  ( 0.000000000000000000, 0.000000000000000000, 317.0000000000000000 ) ) ;
#124 = EDGE_CURVE ( 'NONE', #83, #25, #197, .T. ) ;
#125 = FACE_OUTER_BOUND ( 'NONE', #69, .T. ) ;
#126 = CARTESIAN_POINT ( 'NONE',  ( 0.000000000000000000, 0.000000000000000000, 0.000000000000000000 ) ) ;
#127 = ORIENTED_EDGE ( 'NONE', *, *, #107, .F. ) ;
#128 = CARTESIAN_POINT ( 'NONE',  ( -1.100000000000000089, 0.000000000000000000, 317.0000000000000000 ) ) ;
#129 = FACE_OUTER_BOUND ( 'NONE', #52, .T. ) ;
#130 = CIRCLE ( 'NONE', #228, 2.000000000000000000 ) ;
#131 = DIRECTION ( 'NONE',  ( 0.000000000000000000, 0.000000000000000000, 1.000000000000000000 ) ) ;
#132 = CALENDAR_DATE ( 2022, 7, 7 ) ;
#133 = FACE_OUTER_BOUND ( 'NONE', #5, .T. ) ;
#134 = CC_DESIGN_APPROVAL ( #187, ( #35 ) ) ;
#135 = SECURITY_CLASSIFICATION_LEVEL ( 'unclassified' ) ;
#136 = DIRECTION ( 'NONE',  ( -0.000000000000000000, -0.000000000000000000, -1.000000000000000000 ) ) ;
#137 = EDGE_CURVE ( 'NONE', #22, #70, #40, .T. ) ;
#138 = LOCAL_TIME ( 19, 59, 20.00000000000000000, #235 ) ;
#139 = EDGE_CURVE ( 'NONE', #22, #167, #178, .T. ) ;
#140 = PERSON ( 'NEURÈENÝ', 'NEURÈENÝ', 'NEURÈENÝ', ('NEURÈENÝ'), ('NEURÈENÝ'), ('NEURÈENÝ') ) ;
#141 = PRODUCT_RELATED_PRODUCT_CATEGORY ( 'detail', '', ( #229 ) ) ;
#142 = DATE_AND_TIME ( #182, #138 ) ;
#143 = VERTEX_POINT ( 'NONE', #17 ) ;
#144 =( GEOMETRIC_REPRESENTATION_CONTEXT ( 3 ) GLOBAL_UNCERTAINTY_ASSIGNED_CONTEXT ( ( #217 ) ) GLOBAL_UNIT_ASSIGNED_CONTEXT ( ( #155, #252, #75 ) ) REPRESENTATION_CONTEXT ( 'NONE', 'WORKASPACE' ) );
#145 = EDGE_CURVE ( 'NONE', #25, #251, #108, .T. ) ;
#146 = ORIENTED_EDGE ( 'NONE', *, *, #137, .F. ) ;
#147 = ORIENTED_EDGE ( 'NONE', *, *, #145, .F. ) ;
#148 = PRODUCT_DEFINITION_SHAPE ( 'NONE', 'NONE',  #209 ) ;
#149 = DESIGN_CONTEXT ( 'detailed design', #247, 'design' ) ;
#150 = ORIENTED_EDGE ( 'NONE', *, *, #139, .T. ) ;
#151 = ORIENTED_EDGE ( 'NONE', *, *, #3, .T. ) ;
#152 = ADVANCED_FACE ( 'NONE', ( #12 ), #99, .T. ) ;
#153 = AXIS2_PLACEMENT_3D ( 'NONE', #175, #177, #159 ) ;
#154 = DATE_TIME_ROLE ( 'classification_date' ) ;
#155 =( LENGTH_UNIT ( ) NAMED_UNIT ( * ) SI_UNIT ( .MILLI., .METRE. ) );
#156 = COORDINATED_UNIVERSAL_TIME_OFFSET ( 1, 0, .AHEAD. ) ;
#157 = CYLINDRICAL_SURFACE ( 'NONE', #19, 2.000000000000000000 ) ;
#158 = APPROVAL_ROLE ( '' ) ;
#159 = DIRECTION ( 'NONE',  ( -1.000000000000000000, 0.000000000000000000, 0.000000000000000000 ) ) ;
#160 = VECTOR ( 'NONE', #136, 1000.000000000000000 ) ;
#161 = AXIS2_PLACEMENT_3D ( 'NONE', #254, #118, #71 ) ;
#162 = DIRECTION ( 'NONE',  ( 1.000000000000000000, 0.000000000000000000, 0.000000000000000000 ) ) ;
#163 = CC_DESIGN_PERSON_AND_ORGANIZATION_ASSIGNMENT ( #211, #97, ( #219 ) ) ;
#164 = CARTESIAN_POINT ( 'NONE',  ( 0.000000000000000000, 0.000000000000000000, 0.000000000000000000 ) ) ;
#165 = ORIENTED_EDGE ( 'NONE', *, *, #180, .T. ) ;
#166 = ORIENTED_EDGE ( 'NONE', *, *, #88, .T. ) ;
#167 = VERTEX_POINT ( 'NONE', #194 ) ;
#168 = ORIENTED_EDGE ( 'NONE', *, *, #82, .F. ) ;
#169 = PERSON_AND_ORGANIZATION ( #140, #72 ) ;
#170 = CARTESIAN_POINT ( 'NONE',  ( -1.100000000000000089, 0.000000000000000000, 317.0000000000000000 ) ) ;
#171 = DIRECTION ( 'NONE',  ( 0.000000000000000000, 0.000000000000000000, 1.000000000000000000 ) ) ;
#172 = PERSON_AND_ORGANIZATION ( #140, #72 ) ;
#173 = LINE ( 'NONE', #170, #116 ) ;
#174 = AXIS2_PLACEMENT_3D ( 'NONE', #214, #207, #37 ) ;
#175 = CARTESIAN_POINT ( 'NONE',  ( 0.000000000000000000, 0.000000000000000000, 317.0000000000000000 ) ) ;
#176 = PERSON_AND_ORGANIZATION_ROLE ( 'design_owner' ) ;
#177 = DIRECTION ( 'NONE',  ( -0.000000000000000000, -0.000000000000000000, -1.000000000000000000 ) ) ;
#178 = LINE ( 'NONE', #119, #160 ) ;
#179 = AXIS2_PLACEMENT_3D ( 'NONE', #253, #232, #90 ) ;
#180 = EDGE_CURVE ( 'NONE', #77, #251, #225, .T. ) ;
#181 = AXIS2_PLACEMENT_3D ( 'NONE', #111, #188, #46 ) ;
#182 = CALENDAR_DATE ( 2022, 7, 7 ) ;
#183 = FACE_OUTER_BOUND ( 'NONE', #189, .T. ) ;
#184 = CYLINDRICAL_SURFACE ( 'NONE', #233, 1.100000000000000089 ) ;
#185 = DIRECTION ( 'NONE',  ( -1.000000000000000000, 0.000000000000000000, 0.000000000000000000 ) ) ;
#186 = DATE_TIME_ROLE ( 'creation_date' ) ;
#187 = APPROVAL ( #13, 'NEURÈENÝ' ) ;
#188 = DIRECTION ( 'NONE',  ( 0.000000000000000000, 0.000000000000000000, 1.000000000000000000 ) ) ;
#189 = EDGE_LOOP ( 'NONE', ( #239, #47, #238, #84 ) ) ;
#190 = COORDINATED_UNIVERSAL_TIME_OFFSET ( 1, 0, .AHEAD. ) ;
#191 = CARTESIAN_POINT ( 'NONE',  ( 0.000000000000000000, 0.000000000000000000, 2.000000000000000000 ) ) ;
#192 = VECTOR ( 'NONE', #113, 1000.000000000000000 ) ;
#193 = PERSON_AND_ORGANIZATION_ROLE ( 'classification_officer' ) ;
#194 = CARTESIAN_POINT ( 'NONE',  ( 1.100000000000000089, 1.347111479062088503E-16, 2.000000000000000000 ) ) ;
#195 = APPROVAL_PERSON_ORGANIZATION ( #221, #187, #95 ) ;
#196 = DIRECTION ( 'NONE',  ( 1.000000000000000000, 0.000000000000000000, 0.000000000000000000 ) ) ;
#197 = LINE ( 'NONE', #32, #192 ) ;
#198 = CYLINDRICAL_SURFACE ( 'NONE', #45, 2.000000000000000000 ) ;
#199 = APPLICATION_CONTEXT ( 'configuration controlled 3d designs of mechanical parts and assemblies' ) ;
#200 = ADVANCED_FACE ( 'NONE', ( #61 ), #79, .F. ) ;
#201 = DIRECTION ( 'NONE',  ( 0.000000000000000000, 0.000000000000000000, 1.000000000000000000 ) ) ;
#202 = CIRCLE ( 'NONE', #181, 2.000000000000000000 ) ;
#203 = ORIENTED_EDGE ( 'NONE', *, *, #82, .T. ) ;
#204 = CARTESIAN_POINT ( 'NONE',  ( 0.000000000000000000, 0.000000000000000000, 317.0000000000000000 ) ) ;
#205 = VECTOR ( 'NONE', #96, 1000.000000000000000 ) ;
#206 = DIRECTION ( 'NONE',  ( 0.000000000000000000, 0.000000000000000000, 1.000000000000000000 ) ) ;
#207 = DIRECTION ( 'NONE',  ( 0.000000000000000000, 0.000000000000000000, 1.000000000000000000 ) ) ;
#208 = DIRECTION ( 'NONE',  ( -1.000000000000000000, 0.000000000000000000, 0.000000000000000000 ) ) ;
#209 = PRODUCT_DEFINITION ( 'NEZNÁMÝ', '', #219, #149 ) ;
#210 = EDGE_LOOP ( 'NONE', ( #146, #150, #166, #222 ) ) ;
#211 = PERSON_AND_ORGANIZATION ( #140, #72 ) ;
#212 = FACE_BOUND ( 'NONE', #109, .T. ) ;
#213 = COORDINATED_UNIVERSAL_TIME_OFFSET ( 1, 0, .AHEAD. ) ;
#214 = CARTESIAN_POINT ( 'NONE',  ( 0.000000000000000000, 0.000000000000000000, 0.000000000000000000 ) ) ;
#215 = CLOSED_SHELL ( 'NONE', ( #152, #103, #216, #104, #200, #21, #20 ) ) ;
#216 = ADVANCED_FACE ( 'NONE', ( #133 ), #198, .T. ) ;
#217 = UNCERTAINTY_MEASURE_WITH_UNIT (LENGTH_MEASURE( 1.000000000000000082E-05 ), #155, 'distance_accuracy_value', 'NONE');
#218 = EDGE_LOOP ( 'NONE', ( #203, #151 ) ) ;
#219 = PRODUCT_DEFINITION_FORMATION_WITH_SPECIFIED_SOURCE ( 'LIBOVOLNÝ', '', #229, .NOT_KNOWN. ) ;
#220 = CARTESIAN_POINT ( 'NONE',  ( 0.000000000000000000, 0.000000000000000000, 2.000000000000000000 ) ) ;
#221 = PERSON_AND_ORGANIZATION ( #140, #72 ) ;
#222 = ORIENTED_EDGE ( 'NONE', *, *, #245, .F. ) ;
#223 = ORIENTED_EDGE ( 'NONE', *, *, #124, .T. ) ;
#224 = AXIS2_PLACEMENT_3D ( 'NONE', #14, #131, #231 ) ;
#225 = LINE ( 'NONE', #55, #205 ) ;
#226 = LOCAL_TIME ( 19, 59, 20.00000000000000000, #190 ) ;
#227 = APPLICATION_PROTOCOL_DEFINITION ( 'international standard', 'config_control_design', 1994, #247 ) ;
#228 = AXIS2_PLACEMENT_3D ( 'NONE', #49, #201, #51 ) ;
#229 = PRODUCT ( 'f331', 'f331', '', ( #249 ) ) ;
#230 = APPROVAL_DATE_TIME ( #50, #44 ) ;
#231 = DIRECTION ( 'NONE',  ( 1.000000000000000000, 0.000000000000000000, 0.000000000000000000 ) ) ;
#232 = DIRECTION ( 'NONE',  ( 0.000000000000000000, 0.000000000000000000, 1.000000000000000000 ) ) ;
#233 = AXIS2_PLACEMENT_3D ( 'NONE', #123, #86, #185 ) ;
#234 = AXIS2_PLACEMENT_3D ( 'NONE', #220, #171, #2 ) ;
#235 = COORDINATED_UNIVERSAL_TIME_OFFSET ( 1, 0, .AHEAD. ) ;
#236 = CC_DESIGN_DATE_AND_TIME_ASSIGNMENT ( #58, #186, ( #209 ) ) ;
#237 = LOCAL_TIME ( 19, 59, 20.00000000000000000, #213 ) ;
#238 = ORIENTED_EDGE ( 'NONE', *, *, #245, .T. ) ;
#239 = ORIENTED_EDGE ( 'NONE', *, *, #139, .F. ) ;
#240 = ORIENTED_EDGE ( 'NONE', *, *, #180, .F. ) ;
#241 = ADVANCED_BREP_SHAPE_REPRESENTATION ( 'f331', ( #81, #41 ), #144 ) ;
#242 = CARTESIAN_POINT ( 'NONE',  ( 2.000000000000000000, 2.449293598294706414E-16, 0.000000000000000000 ) ) ;
#243 = CARTESIAN_POINT ( 'NONE',  ( 0.000000000000000000, 0.000000000000000000, 2.000000000000000000 ) ) ;
#244 = DIRECTION ( 'NONE',  ( 0.000000000000000000, 0.000000000000000000, 1.000000000000000000 ) ) ;
#245 = EDGE_CURVE ( 'NONE', #70, #143, #173, .T. ) ;
#246 = APPROVAL_STATUS ( 'not_yet_approved' ) ;
#247 = APPLICATION_CONTEXT ( 'configuration controlled 3d designs of mechanical parts and assemblies' ) ;
#248 = ORIENTED_EDGE ( 'NONE', *, *, #88, .F. ) ;
#249 = MECHANICAL_CONTEXT ( 'NONE', #199, 'mechanical' ) ;
#250 = DIRECTION ( 'NONE',  ( 1.000000000000000000, 0.000000000000000000, 0.000000000000000000 ) ) ;
#251 = VERTEX_POINT ( 'NONE', #59 ) ;
#252 =( NAMED_UNIT ( * ) PLANE_ANGLE_UNIT ( ) SI_UNIT ( $, .RADIAN. ) );
#253 = CARTESIAN_POINT ( 'NONE',  ( 0.000000000000000000, 0.000000000000000000, 0.000000000000000000 ) ) ;
#254 = CARTESIAN_POINT ( 'NONE',  ( 0.000000000000000000, 0.000000000000000000, 2.000000000000000000 ) ) ;
#255 = AXIS2_PLACEMENT_3D ( 'NONE', #121, #206, #162 ) ;
ENDSEC;
END-ISO-10303-21;
