ISO-10303-21;
HEADER;
FILE_DESCRIPTION (( 'STEP AP203' ),
    '1' );
FILE_NAME ('b22a.STEP',
    '2023-02-13T13:14:41',
    ( '' ),
    ( '' ),
    'SwSTEP 2.0',
    'SolidWorks 2019',
    '' );
FILE_SCHEMA (( 'CONFIG_CONTROL_DESIGN' ));
ENDSEC;

DATA;
#1 = ADVANCED_FACE ( 'NONE', ( #166 ), #167, .T. ) ;
#2 = DIRECTION ( 'NONE',  ( 0.000000000000000000, 0.000000000000000000, 1.000000000000000000 ) ) ;
#3 = CARTESIAN_POINT ( 'NONE',  ( 5.099999999999999645, 6.245698675651500839E-16, 500.0000000000000000 ) ) ;
#4 = ADVANCED_FACE ( 'NONE', ( #182 ), #70, .T. ) ;
#5 = DIRECTION ( 'NONE',  ( 0.000000000000000000, 0.000000000000000000, 1.000000000000000000 ) ) ;
#6 = DIRECTION ( 'NONE',  ( -0.000000000000000000, -0.000000000000000000, -1.000000000000000000 ) ) ;
#7 = LOCAL_TIME ( 14, 14, 41.00000000000000000, #220 ) ;
#8 = AXIS2_PLACEMENT_3D ( 'NONE', #147, #112, #224 ) ;
#9 = CARTESIAN_POINT ( 'NONE',  ( 0.000000000000000000, 0.000000000000000000, 500.0000000000000000 ) ) ;
#10 = PRODUCT_DEFINITION ( 'NEZNÁMÝ', '', #254, #80 ) ;
#11 = CC_DESIGN_PERSON_AND_ORGANIZATION_ASSIGNMENT ( #35, #210, ( #114 ) ) ;
#12 = CARTESIAN_POINT ( 'NONE',  ( 8.000000000000000000, 9.797174393178825657E-16, 0.000000000000000000 ) ) ;
#13 = CC_DESIGN_APPROVAL ( #156, ( #231 ) ) ;
#14 = CARTESIAN_POINT ( 'NONE',  ( -5.099999999999999645, 0.000000000000000000, 500.0000000000000000 ) ) ;
#15 = CIRCLE ( 'NONE', #47, 5.099999999999999645 ) ;
#16 = APPLICATION_PROTOCOL_DEFINITION ( 'international standard', 'config_control_design', 1994, #195 ) ;
#17 = EDGE_LOOP ( 'NONE', ( #211, #142, #250, #122 ) ) ;
#18 = APPROVAL_ROLE ( '' ) ;
#19 = CIRCLE ( 'NONE', #8, 8.000000000000000000 ) ;
#20 = ADVANCED_FACE ( 'NONE', ( #124 ), #255, .F. ) ;
#21 = APPROVAL_ROLE ( '' ) ;
#22 = PERSON_AND_ORGANIZATION_ROLE ( 'creator' ) ;
#23 = VERTEX_POINT ( 'NONE', #207 ) ;
#24 = CARTESIAN_POINT ( 'NONE',  ( -8.000000000000000000, 0.000000000000000000, 0.000000000000000000 ) ) ;
#25 = PERSON_AND_ORGANIZATION ( #244, #151 ) ;
#26 = VERTEX_POINT ( 'NONE', #24 ) ;
#27 = DIRECTION ( 'NONE',  ( 1.000000000000000000, 0.000000000000000000, -0.000000000000000000 ) ) ;
#28 = CC_DESIGN_DATE_AND_TIME_ASSIGNMENT ( #143, #108, ( #231 ) ) ;
#29 = AXIS2_PLACEMENT_3D ( 'NONE', #99, #190, #247 ) ;
#30 = LINE ( 'NONE', #187, #174 ) ;
#31 = AXIS2_PLACEMENT_3D ( 'NONE', #71, #168, #203 ) ;
#32 = ADVANCED_FACE ( 'NONE', ( #67 ), #125, .T. ) ;
#33 = CARTESIAN_POINT ( 'NONE',  ( 0.000000000000000000, 0.000000000000000000, 0.000000000000000000 ) ) ;
#34 = CC_DESIGN_PERSON_AND_ORGANIZATION_ASSIGNMENT ( #237, #86, ( #231 ) ) ;
#35 = PERSON_AND_ORGANIZATION ( #244, #151 ) ;
#36 =( NAMED_UNIT ( * ) PLANE_ANGLE_UNIT ( ) SI_UNIT ( $, .RADIAN. ) );
#37 = APPLICATION_PROTOCOL_DEFINITION ( 'international standard', 'config_control_design', 1994, #169 ) ;
#38 = ORIENTED_EDGE ( 'NONE', *, *, #53, .F. ) ;
#39 = VECTOR ( 'NONE', #97, 1000.000000000000000 ) ;
#40 = ORIENTED_EDGE ( 'NONE', *, *, #82, .F. ) ;
#41 = AXIS2_PLACEMENT_3D ( 'NONE', #129, #46, #199 ) ;
#42 = DATE_AND_TIME ( #84, #7 ) ;
#43 = ORIENTED_EDGE ( 'NONE', *, *, #61, .T. ) ;
#44 = EDGE_LOOP ( 'NONE', ( #148, #40 ) ) ;
#45 = PERSON_AND_ORGANIZATION ( #244, #151 ) ;
#46 = DIRECTION ( 'NONE',  ( 0.000000000000000000, 0.000000000000000000, 1.000000000000000000 ) ) ;
#47 = AXIS2_PLACEMENT_3D ( 'NONE', #202, #111, #131 ) ;
#48 = ORIENTED_EDGE ( 'NONE', *, *, #98, .T. ) ;
#49 = VERTEX_POINT ( 'NONE', #201 ) ;
#50 = CC_DESIGN_APPROVAL ( #94, ( #10 ) ) ;
#51 = EDGE_CURVE ( 'NONE', #49, #218, #150, .T. ) ;
#52 = CARTESIAN_POINT ( 'NONE',  ( 0.000000000000000000, 0.000000000000000000, 5.000000000000000000 ) ) ;
#53 = EDGE_CURVE ( 'NONE', #23, #218, #133, .T. ) ;
#54 = LINE ( 'NONE', #14, #56 ) ;
#55 = CARTESIAN_POINT ( 'NONE',  ( 0.000000000000000000, 0.000000000000000000, 500.0000000000000000 ) ) ;
#56 = VECTOR ( 'NONE', #251, 1000.000000000000000 ) ;
#57 = ORIENTED_EDGE ( 'NONE', *, *, #186, .T. ) ;
#58 = PERSON_AND_ORGANIZATION ( #244, #151 ) ;
#59 = EDGE_CURVE ( 'NONE', #214, #139, #19, .T. ) ;
#60 = ORIENTED_EDGE ( 'NONE', *, *, #59, .T. ) ;
#61 = EDGE_CURVE ( 'NONE', #49, #159, #15, .T. ) ;
#62 = CC_DESIGN_SECURITY_CLASSIFICATION ( #231, ( #254 ) ) ;
#63 = ORIENTED_EDGE ( 'NONE', *, *, #72, .T. ) ;
#64 = AXIS2_PLACEMENT_3D ( 'NONE', #241, #130, #180 ) ;
#65 = COORDINATED_UNIVERSAL_TIME_OFFSET ( 1, 0, .AHEAD. ) ;
#66 = DIRECTION ( 'NONE',  ( 1.000000000000000000, 0.000000000000000000, 0.000000000000000000 ) ) ;
#67 = FACE_OUTER_BOUND ( 'NONE', #101, .T. ) ;
#68 = AXIS2_PLACEMENT_3D ( 'NONE', #152, #209, #154 ) ;
#69 = DATE_AND_TIME ( #120, #172 ) ;
#70 = PLANE ( 'NONE',  #228 ) ;
#71 = CARTESIAN_POINT ( 'NONE',  ( 0.000000000000000000, 0.000000000000000000, 0.000000000000000000 ) ) ;
#72 = EDGE_CURVE ( 'NONE', #139, #214, #189, .T. ) ;
#73 = DIRECTION ( 'NONE',  ( -0.000000000000000000, -0.000000000000000000, -1.000000000000000000 ) ) ;
#74 = UNCERTAINTY_MEASURE_WITH_UNIT (LENGTH_MEASURE( 1.000000000000000082E-05 ), #115, 'distance_accuracy_value', 'NONE');
#75 = CC_DESIGN_APPROVAL ( #128, ( #254 ) ) ;
#76 = CARTESIAN_POINT ( 'NONE',  ( 0.000000000000000000, 0.000000000000000000, 5.000000000000000000 ) ) ;
#77 = DIRECTION ( 'NONE',  ( -1.000000000000000000, 0.000000000000000000, 0.000000000000000000 ) ) ;
#78 = CARTESIAN_POINT ( 'NONE',  ( 5.099999999999999645, 6.245698675651500839E-16, 5.000000000000000000 ) ) ;
#79 = LOCAL_TIME ( 14, 14, 41.00000000000000000, #194 ) ;
#80 = DESIGN_CONTEXT ( 'detailed design', #169, 'design' ) ;
#81 = APPROVAL_STATUS ( 'not_yet_approved' ) ;
#82 = EDGE_CURVE ( 'NONE', #165, #26, #193, .T. ) ;
#83 = CC_DESIGN_PERSON_AND_ORGANIZATION_ASSIGNMENT ( #217, #104, ( #254 ) ) ;
#84 = CALENDAR_DATE ( 2023, 13, 2 ) ;
#85 =( GEOMETRIC_REPRESENTATION_CONTEXT ( 3 ) GLOBAL_UNCERTAINTY_ASSIGNED_CONTEXT ( ( #74 ) ) GLOBAL_UNIT_ASSIGNED_CONTEXT ( ( #115, #36, #245 ) ) REPRESENTATION_CONTEXT ( 'NONE', 'WORKASPACE' ) );
#86 = PERSON_AND_ORGANIZATION_ROLE ( 'classification_officer' ) ;
#87 = CARTESIAN_POINT ( 'NONE',  ( 0.000000000000000000, 0.000000000000000000, 500.0000000000000000 ) ) ;
#88 = COORDINATED_UNIVERSAL_TIME_OFFSET ( 1, 0, .AHEAD. ) ;
#89 = ORIENTED_EDGE ( 'NONE', *, *, #72, .F. ) ;
#90 = ORIENTED_EDGE ( 'NONE', *, *, #92, .F. ) ;
#91 = AXIS2_PLACEMENT_3D ( 'NONE', #76, #132, #229 ) ;
#92 = EDGE_CURVE ( 'NONE', #214, #165, #30, .T. ) ;
#93 = DIRECTION ( 'NONE',  ( 1.000000000000000000, 0.000000000000000000, 0.000000000000000000 ) ) ;
#94 = APPROVAL ( #81, 'NEURÈENÝ' ) ;
#95 = DIRECTION ( 'NONE',  ( 0.000000000000000000, 0.000000000000000000, 1.000000000000000000 ) ) ;
#96 = CARTESIAN_POINT ( 'NONE',  ( 8.000000000000000000, 9.797174393178825657E-16, 5.000000000000000000 ) ) ;
#97 = DIRECTION ( 'NONE',  ( -0.000000000000000000, -0.000000000000000000, -1.000000000000000000 ) ) ;
#98 = EDGE_CURVE ( 'NONE', #26, #165, #205, .T. ) ;
#99 = CARTESIAN_POINT ( 'NONE',  ( 0.000000000000000000, 0.000000000000000000, 5.000000000000000000 ) ) ;
#100 = CYLINDRICAL_SURFACE ( 'NONE', #29, 8.000000000000000000 ) ;
#101 = EDGE_LOOP ( 'NONE', ( #155, #184, #57, #106 ) ) ;
#102 = CARTESIAN_POINT ( 'NONE',  ( -8.000000000000000000, 0.000000000000000000, 5.000000000000000000 ) ) ;
#103 = LOCAL_TIME ( 14, 14, 41.00000000000000000, #88 ) ;
#104 = PERSON_AND_ORGANIZATION_ROLE ( 'creator' ) ;
#105 = SHAPE_DEFINITION_REPRESENTATION ( #204, #248 ) ;
#106 = ORIENTED_EDGE ( 'NONE', *, *, #53, .T. ) ;
#107 = CARTESIAN_POINT ( 'NONE',  ( 0.000000000000000000, 0.000000000000000000, 5.000000000000000000 ) ) ;
#108 = DATE_TIME_ROLE ( 'classification_date' ) ;
#109 = ORIENTED_EDGE ( 'NONE', *, *, #186, .F. ) ;
#110 = EDGE_CURVE ( 'NONE', #218, #23, #161, .T. ) ;
#111 = DIRECTION ( 'NONE',  ( 0.000000000000000000, 0.000000000000000000, 1.000000000000000000 ) ) ;
#112 = DIRECTION ( 'NONE',  ( 0.000000000000000000, 0.000000000000000000, 1.000000000000000000 ) ) ;
#113 = AXIS2_PLACEMENT_3D ( 'NONE', #185, #5, #93 ) ;
#114 = PRODUCT ( 'b22a', 'b22a', '', ( #191 ) ) ;
#115 =( LENGTH_UNIT ( ) NAMED_UNIT ( * ) SI_UNIT ( .MILLI., .METRE. ) );
#116 = EDGE_CURVE ( 'NONE', #139, #26, #219, .T. ) ;
#117 = PERSON_AND_ORGANIZATION ( #244, #151 ) ;
#118 = ORIENTED_EDGE ( 'NONE', *, *, #110, .F. ) ;
#119 = COORDINATED_UNIVERSAL_TIME_OFFSET ( 1, 0, .AHEAD. ) ;
#120 = CALENDAR_DATE ( 2023, 13, 2 ) ;
#121 = CALENDAR_DATE ( 2023, 13, 2 ) ;
#122 = ORIENTED_EDGE ( 'NONE', *, *, #116, .F. ) ;
#123 = APPROVAL_PERSON_ORGANIZATION ( #183, #156, #240 ) ;
#124 = FACE_OUTER_BOUND ( 'NONE', #44, .T. ) ;
#125 = CYLINDRICAL_SURFACE ( 'NONE', #141, 5.099999999999999645 ) ;
#126 = VECTOR ( 'NONE', #242, 1000.000000000000000 ) ;
#127 = CC_DESIGN_PERSON_AND_ORGANIZATION_ASSIGNMENT ( #25, #164, ( #254 ) ) ;
#128 = APPROVAL ( #140, 'NEURÈENÝ' ) ;
#129 = CARTESIAN_POINT ( 'NONE',  ( 0.000000000000000000, 0.000000000000000000, 0.000000000000000000 ) ) ;
#130 = DIRECTION ( 'NONE',  ( 0.000000000000000000, 0.000000000000000000, 1.000000000000000000 ) ) ;
#131 = DIRECTION ( 'NONE',  ( 1.000000000000000000, 0.000000000000000000, 0.000000000000000000 ) ) ;
#132 = DIRECTION ( 'NONE',  ( 0.000000000000000000, 0.000000000000000000, 1.000000000000000000 ) ) ;
#133 = CIRCLE ( 'NONE', #64, 5.099999999999999645 ) ;
#134 = AXIS2_PLACEMENT_3D ( 'NONE', #33, #95, #243 ) ;
#135 = MANIFOLD_SOLID_BREP ( 'Pøidat vysunutím3', #223 ) ;
#136 = DIRECTION ( 'NONE',  ( 1.000000000000000000, 0.000000000000000000, 0.000000000000000000 ) ) ;
#137 = ORIENTED_EDGE ( 'NONE', *, *, #51, .T. ) ;
#138 = CYLINDRICAL_SURFACE ( 'NONE', #170, 5.099999999999999645 ) ;
#139 = VERTEX_POINT ( 'NONE', #208 ) ;
#140 = APPROVAL_STATUS ( 'not_yet_approved' ) ;
#141 = AXIS2_PLACEMENT_3D ( 'NONE', #145, #73, #222 ) ;
#142 = ORIENTED_EDGE ( 'NONE', *, *, #92, .T. ) ;
#143 = DATE_AND_TIME ( #121, #103 ) ;
#144 = LOCAL_TIME ( 14, 14, 41.00000000000000000, #119 ) ;
#145 = CARTESIAN_POINT ( 'NONE',  ( 0.000000000000000000, 0.000000000000000000, 500.0000000000000000 ) ) ;
#146 = SECURITY_CLASSIFICATION_LEVEL ( 'unclassified' ) ;
#147 = CARTESIAN_POINT ( 'NONE',  ( 0.000000000000000000, 0.000000000000000000, 5.000000000000000000 ) ) ;
#148 = ORIENTED_EDGE ( 'NONE', *, *, #98, .F. ) ;
#149 = CC_DESIGN_PERSON_AND_ORGANIZATION_ASSIGNMENT ( #58, #22, ( #10 ) ) ;
#150 = LINE ( 'NONE', #3, #126 ) ;
#151 = ORGANIZATION ( 'NEURÈENÝ', 'NEURÈENÝ', '' ) ;
#152 = CARTESIAN_POINT ( 'NONE',  ( 0.000000000000000000, 0.000000000000000000, 0.000000000000000000 ) ) ;
#153 = FACE_BOUND ( 'NONE', #176, .T. ) ;
#154 = DIRECTION ( 'NONE',  ( 1.000000000000000000, 0.000000000000000000, 0.000000000000000000 ) ) ;
#155 = ORIENTED_EDGE ( 'NONE', *, *, #51, .F. ) ;
#156 = APPROVAL ( #253, 'NEURÈENÝ' ) ;
#157 = DATE_AND_TIME ( #178, #79 ) ;
#158 = EDGE_LOOP ( 'NONE', ( #227, #137, #179, #109 ) ) ;
#159 = VERTEX_POINT ( 'NONE', #230 ) ;
#160 = DATE_TIME_ROLE ( 'creation_date' ) ;
#161 = CIRCLE ( 'NONE', #177, 5.099999999999999645 ) ;
#162 = CALENDAR_DATE ( 2023, 13, 2 ) ;
#163 = DIRECTION ( 'NONE',  ( -0.000000000000000000, -0.000000000000000000, -1.000000000000000000 ) ) ;
#164 = PERSON_AND_ORGANIZATION_ROLE ( 'design_supplier' ) ;
#165 = VERTEX_POINT ( 'NONE', #12 ) ;
#166 = FACE_OUTER_BOUND ( 'NONE', #236, .T. ) ;
#167 = CYLINDRICAL_SURFACE ( 'NONE', #233, 8.000000000000000000 ) ;
#168 = DIRECTION ( 'NONE',  ( 0.000000000000000000, 0.000000000000000000, 1.000000000000000000 ) ) ;
#169 = APPLICATION_CONTEXT ( 'configuration controlled 3d designs of mechanical parts and assemblies' ) ;
#170 = AXIS2_PLACEMENT_3D ( 'NONE', #55, #246, #77 ) ;
#171 = CC_DESIGN_DATE_AND_TIME_ASSIGNMENT ( #181, #160, ( #10 ) ) ;
#172 = LOCAL_TIME ( 14, 14, 41.00000000000000000, #65 ) ;
#173 = FACE_OUTER_BOUND ( 'NONE', #158, .T. ) ;
#174 = VECTOR ( 'NONE', #6, 1000.000000000000000 ) ;
#175 = DIRECTION ( 'NONE',  ( 0.000000000000000000, 0.000000000000000000, 1.000000000000000000 ) ) ;
#176 = EDGE_LOOP ( 'NONE', ( #38, #118 ) ) ;
#177 = AXIS2_PLACEMENT_3D ( 'NONE', #52, #238, #66 ) ;
#178 = CALENDAR_DATE ( 2023, 13, 2 ) ;
#179 = ORIENTED_EDGE ( 'NONE', *, *, #110, .T. ) ;
#180 = DIRECTION ( 'NONE',  ( 1.000000000000000000, 0.000000000000000000, 0.000000000000000000 ) ) ;
#181 = DATE_AND_TIME ( #162, #144 ) ;
#182 = FACE_OUTER_BOUND ( 'NONE', #216, .T. ) ;
#183 = PERSON_AND_ORGANIZATION ( #244, #151 ) ;
#184 = ORIENTED_EDGE ( 'NONE', *, *, #198, .F. ) ;
#185 = CARTESIAN_POINT ( 'NONE',  ( 0.000000000000000000, 0.000000000000000000, 5.000000000000000000 ) ) ;
#186 = EDGE_CURVE ( 'NONE', #159, #23, #54, .T. ) ;
#187 = CARTESIAN_POINT ( 'NONE',  ( 8.000000000000000000, 9.797174393178825657E-16, 5.000000000000000000 ) ) ;
#188 = CIRCLE ( 'NONE', #226, 5.099999999999999645 ) ;
#189 = CIRCLE ( 'NONE', #113, 8.000000000000000000 ) ;
#190 = DIRECTION ( 'NONE',  ( -0.000000000000000000, -0.000000000000000000, -1.000000000000000000 ) ) ;
#191 = MECHANICAL_CONTEXT ( 'NONE', #195, 'mechanical' ) ;
#192 = PLANE ( 'NONE',  #91 ) ;
#193 = CIRCLE ( 'NONE', #31, 8.000000000000000000 ) ;
#194 = COORDINATED_UNIVERSAL_TIME_OFFSET ( 1, 0, .AHEAD. ) ;
#195 = APPLICATION_CONTEXT ( 'configuration controlled 3d designs of mechanical parts and assemblies' ) ;
#196 = ORIENTED_EDGE ( 'NONE', *, *, #198, .T. ) ;
#197 = ADVANCED_FACE ( 'NONE', ( #249 ), #100, .T. ) ;
#198 = EDGE_CURVE ( 'NONE', #159, #49, #188, .T. ) ;
#199 = DIRECTION ( 'NONE',  ( 1.000000000000000000, 0.000000000000000000, -0.000000000000000000 ) ) ;
#200 = APPROVAL_DATE_TIME ( #69, #128 ) ;
#201 = CARTESIAN_POINT ( 'NONE',  ( 5.099999999999999645, 6.245698675651500839E-16, 500.0000000000000000 ) ) ;
#202 = CARTESIAN_POINT ( 'NONE',  ( 0.000000000000000000, 0.000000000000000000, 500.0000000000000000 ) ) ;
#203 = DIRECTION ( 'NONE',  ( 1.000000000000000000, 0.000000000000000000, 0.000000000000000000 ) ) ;
#204 = PRODUCT_DEFINITION_SHAPE ( 'NONE', 'NONE',  #10 ) ;
#205 = CIRCLE ( 'NONE', #134, 8.000000000000000000 ) ;
#206 = APPROVAL_PERSON_ORGANIZATION ( #117, #94, #18 ) ;
#207 = CARTESIAN_POINT ( 'NONE',  ( -5.099999999999999645, 0.000000000000000000, 5.000000000000000000 ) ) ;
#208 = CARTESIAN_POINT ( 'NONE',  ( -8.000000000000000000, 0.000000000000000000, 5.000000000000000000 ) ) ;
#209 = DIRECTION ( 'NONE',  ( 0.000000000000000000, 0.000000000000000000, 1.000000000000000000 ) ) ;
#210 = PERSON_AND_ORGANIZATION_ROLE ( 'design_owner' ) ;
#211 = ORIENTED_EDGE ( 'NONE', *, *, #59, .F. ) ;
#212 = ADVANCED_FACE ( 'NONE', ( #173 ), #138, .T. ) ;
#213 = ADVANCED_FACE ( 'NONE', ( #153, #232 ), #192, .T. ) ;
#214 = VERTEX_POINT ( 'NONE', #96 ) ;
#215 = APPROVAL_DATE_TIME ( #42, #156 ) ;
#216 = EDGE_LOOP ( 'NONE', ( #196, #43 ) ) ;
#217 = PERSON_AND_ORGANIZATION ( #244, #151 ) ;
#218 = VERTEX_POINT ( 'NONE', #78 ) ;
#219 = LINE ( 'NONE', #102, #39 ) ;
#220 = COORDINATED_UNIVERSAL_TIME_OFFSET ( 1, 0, .AHEAD. ) ;
#221 = APPROVAL_PERSON_ORGANIZATION ( #45, #128, #21 ) ;
#222 = DIRECTION ( 'NONE',  ( -1.000000000000000000, 0.000000000000000000, 0.000000000000000000 ) ) ;
#223 = CLOSED_SHELL ( 'NONE', ( #212, #197, #1, #213, #20, #32, #4 ) ) ;
#224 = DIRECTION ( 'NONE',  ( 1.000000000000000000, 0.000000000000000000, 0.000000000000000000 ) ) ;
#225 = ORIENTED_EDGE ( 'NONE', *, *, #116, .T. ) ;
#226 = AXIS2_PLACEMENT_3D ( 'NONE', #9, #175, #136 ) ;
#227 = ORIENTED_EDGE ( 'NONE', *, *, #61, .F. ) ;
#228 = AXIS2_PLACEMENT_3D ( 'NONE', #87, #2, #27 ) ;
#229 = DIRECTION ( 'NONE',  ( 1.000000000000000000, 0.000000000000000000, -0.000000000000000000 ) ) ;
#230 = CARTESIAN_POINT ( 'NONE',  ( -5.099999999999999645, 0.000000000000000000, 500.0000000000000000 ) ) ;
#231 = SECURITY_CLASSIFICATION ( '', '', #146 ) ;
#232 = FACE_OUTER_BOUND ( 'NONE', #252, .T. ) ;
#233 = AXIS2_PLACEMENT_3D ( 'NONE', #107, #163, #239 ) ;
#234 = APPROVAL_DATE_TIME ( #157, #94 ) ;
#235 = PRODUCT_RELATED_PRODUCT_CATEGORY ( 'detail', '', ( #114 ) ) ;
#236 = EDGE_LOOP ( 'NONE', ( #90, #89, #225, #48 ) ) ;
#237 = PERSON_AND_ORGANIZATION ( #244, #151 ) ;
#238 = DIRECTION ( 'NONE',  ( 0.000000000000000000, 0.000000000000000000, 1.000000000000000000 ) ) ;
#239 = DIRECTION ( 'NONE',  ( -1.000000000000000000, 0.000000000000000000, 0.000000000000000000 ) ) ;
#240 = APPROVAL_ROLE ( '' ) ;
#241 = CARTESIAN_POINT ( 'NONE',  ( 0.000000000000000000, 0.000000000000000000, 5.000000000000000000 ) ) ;
#242 = DIRECTION ( 'NONE',  ( -0.000000000000000000, -0.000000000000000000, -1.000000000000000000 ) ) ;
#243 = DIRECTION ( 'NONE',  ( 1.000000000000000000, 0.000000000000000000, 0.000000000000000000 ) ) ;
#244 = PERSON ( 'NEURÈENÝ', 'NEURÈENÝ', 'NEURÈENÝ', ('NEURÈENÝ'), ('NEURÈENÝ'), ('NEURÈENÝ') ) ;
#245 =( NAMED_UNIT ( * ) SI_UNIT ( $, .STERADIAN. ) SOLID_ANGLE_UNIT ( ) );
#246 = DIRECTION ( 'NONE',  ( -0.000000000000000000, -0.000000000000000000, -1.000000000000000000 ) ) ;
#247 = DIRECTION ( 'NONE',  ( -1.000000000000000000, 0.000000000000000000, 0.000000000000000000 ) ) ;
#248 = ADVANCED_BREP_SHAPE_REPRESENTATION ( 'b22a', ( #135, #68 ), #85 ) ;
#249 = FACE_OUTER_BOUND ( 'NONE', #17, .T. ) ;
#250 = ORIENTED_EDGE ( 'NONE', *, *, #82, .T. ) ;
#251 = DIRECTION ( 'NONE',  ( -0.000000000000000000, -0.000000000000000000, -1.000000000000000000 ) ) ;
#252 = EDGE_LOOP ( 'NONE', ( #63, #60 ) ) ;
#253 = APPROVAL_STATUS ( 'not_yet_approved' ) ;
#254 = PRODUCT_DEFINITION_FORMATION_WITH_SPECIFIED_SOURCE ( 'LIBOVOLNÝ', '', #114, .NOT_KNOWN. ) ;
#255 = PLANE ( 'NONE',  #41 ) ;
ENDSEC;
END-ISO-10303-21;
