ISO-10303-21;
HEADER;
FILE_DESCRIPTION (( 'STEP AP203' ),
    '1' );
FILE_NAME ('5514.STEP',
    '2022-07-07T17:21:15',
    ( '' ),
    ( '' ),
    'SwSTEP 2.0',
    'SolidWorks 2019',
    '' );
FILE_SCHEMA (( 'CONFIG_CONTROL_DESIGN' ));
ENDSEC;

DATA;
#1 = CARTESIAN_POINT ( 'NONE',  ( 0.000000000000000000, 0.000000000000000000, 207.0000000000000284 ) ) ;
#2 = MECHANICAL_CONTEXT ( 'NONE', #36, 'mechanical' ) ;
#3 = AXIS2_PLACEMENT_3D ( 'NONE', #27, #107, #86 ) ;
#4 = VERTEX_POINT ( 'NONE', #222 ) ;
#5 = CARTESIAN_POINT ( 'NONE',  ( -5.750000000000000000, 0.000000000000000000, 7.000000000000000000 ) ) ;
#6 = CARTESIAN_POINT ( 'NONE',  ( 0.000000000000000000, 0.000000000000000000, 207.0000000000000284 ) ) ;
#7 = CARTESIAN_POINT ( 'NONE',  ( -5.750000000000000000, 0.000000000000000000, 207.0000000000000284 ) ) ;
#8 =( NAMED_UNIT ( * ) PLANE_ANGLE_UNIT ( ) SI_UNIT ( $, .RADIAN. ) );
#9 = AXIS2_PLACEMENT_3D ( 'NONE', #180, #255, #166 ) ;
#10 = CARTESIAN_POINT ( 'NONE',  ( -9.000000000000000000, 0.000000000000000000, 7.000000000000000000 ) ) ;
#11 = DATE_AND_TIME ( #30, #37 ) ;
#12 = ORIENTED_EDGE ( 'NONE', *, *, #237, .T. ) ;
#13 = DIRECTION ( 'NONE',  ( -0.000000000000000000, -0.000000000000000000, -1.000000000000000000 ) ) ;
#14 = PERSON_AND_ORGANIZATION_ROLE ( 'design_supplier' ) ;
#15 = ADVANCED_FACE ( 'NONE', ( #240 ), #20, .F. ) ;
#16 = AXIS2_PLACEMENT_3D ( 'NONE', #188, #85, #184 ) ;
#17 = EDGE_LOOP ( 'NONE', ( #151, #196, #211, #69 ) ) ;
#18 = VERTEX_POINT ( 'NONE', #5 ) ;
#19 =( GEOMETRIC_REPRESENTATION_CONTEXT ( 3 ) GLOBAL_UNCERTAINTY_ASSIGNED_CONTEXT ( ( #158 ) ) GLOBAL_UNIT_ASSIGNED_CONTEXT ( ( #90, #8, #191 ) ) REPRESENTATION_CONTEXT ( 'NONE', 'WORKASPACE' ) );
#20 = PLANE ( 'NONE',  #165 ) ;
#21 = EDGE_CURVE ( 'NONE', #83, #241, #123, .T. ) ;
#22 = CARTESIAN_POINT ( 'NONE',  ( 0.000000000000000000, 0.000000000000000000, 0.000000000000000000 ) ) ;
#23 = FACE_OUTER_BOUND ( 'NONE', #125, .T. ) ;
#24 = DIRECTION ( 'NONE',  ( 0.000000000000000000, 0.000000000000000000, 1.000000000000000000 ) ) ;
#25 = SHAPE_DEFINITION_REPRESENTATION ( #97, #138 ) ;
#26 = DIRECTION ( 'NONE',  ( 0.000000000000000000, 0.000000000000000000, 1.000000000000000000 ) ) ;
#27 = CARTESIAN_POINT ( 'NONE',  ( 0.000000000000000000, 0.000000000000000000, 7.000000000000000000 ) ) ;
#28 = FACE_OUTER_BOUND ( 'NONE', #109, .T. ) ;
#29 = EDGE_CURVE ( 'NONE', #55, #18, #135, .T. ) ;
#30 = CALENDAR_DATE ( 2022, 7, 7 ) ;
#31 = AXIS2_PLACEMENT_3D ( 'NONE', #22, #242, #66 ) ;
#32 = DIRECTION ( 'NONE',  ( -0.000000000000000000, -0.000000000000000000, -1.000000000000000000 ) ) ;
#33 = LOCAL_TIME ( 19, 21, 15.00000000000000000, #248 ) ;
#34 = EDGE_CURVE ( 'NONE', #145, #83, #201, .T. ) ;
#35 = SECURITY_CLASSIFICATION_LEVEL ( 'unclassified' ) ;
#36 = APPLICATION_CONTEXT ( 'configuration controlled 3d designs of mechanical parts and assemblies' ) ;
#37 = LOCAL_TIME ( 19, 21, 15.00000000000000000, #190 ) ;
#38 = APPROVAL ( #52, 'NEURÈENÝ' ) ;
#39 = PERSON ( 'NEURÈENÝ', 'NEURÈENÝ', 'NEURÈENÝ', ('NEURÈENÝ'), ('NEURÈENÝ'), ('NEURÈENÝ') ) ;
#40 = APPROVAL ( #156, 'NEURÈENÝ' ) ;
#41 = ORIENTED_EDGE ( 'NONE', *, *, #238, .T. ) ;
#42 = EDGE_CURVE ( 'NONE', #43, #45, #146, .T. ) ;
#43 = VERTEX_POINT ( 'NONE', #243 ) ;
#44 = CYLINDRICAL_SURFACE ( 'NONE', #16, 5.750000000000000000 ) ;
#45 = VERTEX_POINT ( 'NONE', #50 ) ;
#46 = ORIENTED_EDGE ( 'NONE', *, *, #42, .F. ) ;
#47 = DIRECTION ( 'NONE',  ( 0.000000000000000000, 0.000000000000000000, 1.000000000000000000 ) ) ;
#48 = PERSON_AND_ORGANIZATION ( #39, #118 ) ;
#49 = AXIS2_PLACEMENT_3D ( 'NONE', #147, #119, #205 ) ;
#50 = CARTESIAN_POINT ( 'NONE',  ( 5.750000000000000000, 7.041719095097280880E-16, 7.000000000000000000 ) ) ;
#51 = CYLINDRICAL_SURFACE ( 'NONE', #183, 9.000000000000000000 ) ;
#52 = APPROVAL_STATUS ( 'not_yet_approved' ) ;
#53 = ORIENTED_EDGE ( 'NONE', *, *, #120, .T. ) ;
#54 = PERSON_AND_ORGANIZATION_ROLE ( 'creator' ) ;
#55 = VERTEX_POINT ( 'NONE', #7 ) ;
#56 = PERSON_AND_ORGANIZATION ( #39, #118 ) ;
#57 = VECTOR ( 'NONE', #168, 1000.000000000000000 ) ;
#58 = CALENDAR_DATE ( 2022, 7, 7 ) ;
#59 = CIRCLE ( 'NONE', #162, 5.750000000000000000 ) ;
#60 = EDGE_LOOP ( 'NONE', ( #98, #78 ) ) ;
#61 = CIRCLE ( 'NONE', #49, 9.000000000000000000 ) ;
#62 = AXIS2_PLACEMENT_3D ( 'NONE', #6, #47, #174 ) ;
#63 = ORIENTED_EDGE ( 'NONE', *, *, #233, .F. ) ;
#64 = ADVANCED_FACE ( 'NONE', ( #209 ), #44, .T. ) ;
#65 = PLANE ( 'NONE',  #218 ) ;
#66 = DIRECTION ( 'NONE',  ( 1.000000000000000000, 0.000000000000000000, 0.000000000000000000 ) ) ;
#67 = CARTESIAN_POINT ( 'NONE',  ( -9.000000000000000000, 0.000000000000000000, 0.000000000000000000 ) ) ;
#68 = DIRECTION ( 'NONE',  ( -0.000000000000000000, -0.000000000000000000, -1.000000000000000000 ) ) ;
#69 = ORIENTED_EDGE ( 'NONE', *, *, #29, .F. ) ;
#70 = LOCAL_TIME ( 19, 21, 15.00000000000000000, #134 ) ;
#71 = APPROVAL_STATUS ( 'not_yet_approved' ) ;
#72 = CARTESIAN_POINT ( 'NONE',  ( 0.000000000000000000, 0.000000000000000000, 7.000000000000000000 ) ) ;
#73 = APPROVAL_ROLE ( '' ) ;
#74 = ADVANCED_FACE ( 'NONE', ( #89 ), #127, .T. ) ;
#75 = PRODUCT_DEFINITION ( 'NEZNÁMÝ', '', #79, #105 ) ;
#76 = PERSON_AND_ORGANIZATION_ROLE ( 'design_owner' ) ;
#77 = VECTOR ( 'NONE', #230, 1000.000000000000000 ) ;
#78 = ORIENTED_EDGE ( 'NONE', *, *, #21, .F. ) ;
#79 = PRODUCT_DEFINITION_FORMATION_WITH_SPECIFIED_SOURCE ( 'LIBOVOLNÝ', '', #126, .NOT_KNOWN. ) ;
#80 = CC_DESIGN_DATE_AND_TIME_ASSIGNMENT ( #11, #213, ( #253 ) ) ;
#81 = ADVANCED_FACE ( 'NONE', ( #23 ), #181, .T. ) ;
#82 = DIRECTION ( 'NONE',  ( 1.000000000000000000, 0.000000000000000000, -0.000000000000000000 ) ) ;
#83 = VERTEX_POINT ( 'NONE', #149 ) ;
#84 = AXIS2_PLACEMENT_3D ( 'NONE', #245, #24, #189 ) ;
#85 = DIRECTION ( 'NONE',  ( -0.000000000000000000, -0.000000000000000000, -1.000000000000000000 ) ) ;
#86 = DIRECTION ( 'NONE',  ( 1.000000000000000000, 0.000000000000000000, 0.000000000000000000 ) ) ;
#87 = DIRECTION ( 'NONE',  ( -0.000000000000000000, -0.000000000000000000, -1.000000000000000000 ) ) ;
#88 = DIRECTION ( 'NONE',  ( 0.000000000000000000, 0.000000000000000000, 1.000000000000000000 ) ) ;
#89 = FACE_OUTER_BOUND ( 'NONE', #252, .T. ) ;
#90 =( LENGTH_UNIT ( ) NAMED_UNIT ( * ) SI_UNIT ( .MILLI., .METRE. ) );
#91 = EDGE_LOOP ( 'NONE', ( #175, #197, #187, #143 ) ) ;
#92 = CC_DESIGN_APPROVAL ( #40, ( #75 ) ) ;
#93 = DIRECTION ( 'NONE',  ( -0.000000000000000000, -0.000000000000000000, -1.000000000000000000 ) ) ;
#94 = DIRECTION ( 'NONE',  ( 1.000000000000000000, 0.000000000000000000, 0.000000000000000000 ) ) ;
#95 = PERSON_AND_ORGANIZATION_ROLE ( 'classification_officer' ) ;
#96 = LOCAL_TIME ( 19, 21, 15.00000000000000000, #234 ) ;
#97 = PRODUCT_DEFINITION_SHAPE ( 'NONE', 'NONE',  #75 ) ;
#98 = ORIENTED_EDGE ( 'NONE', *, *, #117, .F. ) ;
#99 = APPLICATION_CONTEXT ( 'configuration controlled 3d designs of mechanical parts and assemblies' ) ;
#100 = ADVANCED_FACE ( 'NONE', ( #244, #28 ), #65, .T. ) ;
#101 = ORIENTED_EDGE ( 'NONE', *, *, #233, .T. ) ;
#102 = CC_DESIGN_PERSON_AND_ORGANIZATION_ASSIGNMENT ( #217, #54, ( #79 ) ) ;
#103 = AXIS2_PLACEMENT_3D ( 'NONE', #247, #88, #150 ) ;
#104 = CARTESIAN_POINT ( 'NONE',  ( 0.000000000000000000, 0.000000000000000000, 7.000000000000000000 ) ) ;
#105 = DESIGN_CONTEXT ( 'detailed design', #99, 'design' ) ;
#106 = DIRECTION ( 'NONE',  ( 0.000000000000000000, 0.000000000000000000, 1.000000000000000000 ) ) ;
#107 = DIRECTION ( 'NONE',  ( 0.000000000000000000, 0.000000000000000000, 1.000000000000000000 ) ) ;
#108 = CC_DESIGN_APPROVAL ( #38, ( #79 ) ) ;
#109 = EDGE_LOOP ( 'NONE', ( #226, #167 ) ) ;
#110 = FACE_OUTER_BOUND ( 'NONE', #91, .T. ) ;
#111 = PERSON_AND_ORGANIZATION ( #39, #118 ) ;
#112 = CARTESIAN_POINT ( 'NONE',  ( 9.000000000000000000, 1.102182119232617714E-15, 7.000000000000000000 ) ) ;
#113 = CYLINDRICAL_SURFACE ( 'NONE', #141, 9.000000000000000000 ) ;
#114 = APPLICATION_PROTOCOL_DEFINITION ( 'international standard', 'config_control_design', 1994, #99 ) ;
#115 = APPLICATION_PROTOCOL_DEFINITION ( 'international standard', 'config_control_design', 1994, #36 ) ;
#116 = PERSON_AND_ORGANIZATION ( #39, #118 ) ;
#117 = EDGE_CURVE ( 'NONE', #241, #83, #161, .T. ) ;
#118 = ORGANIZATION ( 'NEURÈENÝ', 'NEURÈENÝ', '' ) ;
#119 = DIRECTION ( 'NONE',  ( 0.000000000000000000, 0.000000000000000000, 1.000000000000000000 ) ) ;
#120 = EDGE_CURVE ( 'NONE', #4, #241, #212, .T. ) ;
#121 = CC_DESIGN_PERSON_AND_ORGANIZATION_ASSIGNMENT ( #111, #14, ( #79 ) ) ;
#122 = EDGE_LOOP ( 'NONE', ( #203, #160, #53, #198 ) ) ;
#123 = CIRCLE ( 'NONE', #31, 9.000000000000000000 ) ;
#124 = PRODUCT_RELATED_PRODUCT_CATEGORY ( 'detail', '', ( #126 ) ) ;
#125 = EDGE_LOOP ( 'NONE', ( #46, #223, #137, #101 ) ) ;
#126 = PRODUCT ( '5514', '5514', '', ( #2 ) ) ;
#127 = PLANE ( 'NONE',  #254 ) ;
#128 = EDGE_LOOP ( 'NONE', ( #63, #129 ) ) ;
#129 = ORIENTED_EDGE ( 'NONE', *, *, #249, .F. ) ;
#130 = DIRECTION ( 'NONE',  ( 1.000000000000000000, 0.000000000000000000, 0.000000000000000000 ) ) ;
#131 = CALENDAR_DATE ( 2022, 7, 7 ) ;
#132 = DIRECTION ( 'NONE',  ( 1.000000000000000000, 0.000000000000000000, -0.000000000000000000 ) ) ;
#133 = DIRECTION ( 'NONE',  ( 0.000000000000000000, 0.000000000000000000, 1.000000000000000000 ) ) ;
#134 = COORDINATED_UNIVERSAL_TIME_OFFSET ( 1, 0, .AHEAD. ) ;
#135 = LINE ( 'NONE', #202, #77 ) ;
#136 = DATE_AND_TIME ( #210, #70 ) ;
#137 = ORIENTED_EDGE ( 'NONE', *, *, #29, .T. ) ;
#138 = ADVANCED_BREP_SHAPE_REPRESENTATION ( '5514', ( #208, #159 ), #19 ) ;
#139 = PERSON_AND_ORGANIZATION ( #39, #118 ) ;
#140 = VECTOR ( 'NONE', #32, 1000.000000000000000 ) ;
#141 = AXIS2_PLACEMENT_3D ( 'NONE', #225, #13, #228 ) ;
#142 = EDGE_CURVE ( 'NONE', #145, #4, #61, .T. ) ;
#143 = ORIENTED_EDGE ( 'NONE', *, *, #120, .F. ) ;
#144 = CARTESIAN_POINT ( 'NONE',  ( 5.750000000000000000, 7.041719095097280880E-16, 207.0000000000000284 ) ) ;
#145 = VERTEX_POINT ( 'NONE', #185 ) ;
#146 = LINE ( 'NONE', #144, #57 ) ;
#147 = CARTESIAN_POINT ( 'NONE',  ( 0.000000000000000000, 0.000000000000000000, 7.000000000000000000 ) ) ;
#148 = CC_DESIGN_PERSON_AND_ORGANIZATION_ASSIGNMENT ( #194, #76, ( #126 ) ) ;
#149 = CARTESIAN_POINT ( 'NONE',  ( 9.000000000000000000, 1.102182119232617714E-15, 0.000000000000000000 ) ) ;
#150 = DIRECTION ( 'NONE',  ( 1.000000000000000000, 0.000000000000000000, 0.000000000000000000 ) ) ;
#151 = ORIENTED_EDGE ( 'NONE', *, *, #238, .F. ) ;
#152 = DIRECTION ( 'NONE',  ( -1.000000000000000000, 0.000000000000000000, 0.000000000000000000 ) ) ;
#153 = FACE_OUTER_BOUND ( 'NONE', #122, .T. ) ;
#154 = COORDINATED_UNIVERSAL_TIME_OFFSET ( 1, 0, .AHEAD. ) ;
#155 = DATE_AND_TIME ( #58, #33 ) ;
#156 = APPROVAL_STATUS ( 'not_yet_approved' ) ;
#157 = CLOSED_SHELL ( 'NONE', ( #64, #195, #199, #100, #15, #81, #74 ) ) ;
#158 = UNCERTAINTY_MEASURE_WITH_UNIT (LENGTH_MEASURE( 1.000000000000000082E-05 ), #90, 'distance_accuracy_value', 'NONE');
#159 = AXIS2_PLACEMENT_3D ( 'NONE', #214, #193, #94 ) ;
#160 = ORIENTED_EDGE ( 'NONE', *, *, #220, .F. ) ;
#161 = CIRCLE ( 'NONE', #9, 9.000000000000000000 ) ;
#162 = AXIS2_PLACEMENT_3D ( 'NONE', #72, #133, #130 ) ;
#163 = CC_DESIGN_PERSON_AND_ORGANIZATION_ASSIGNMENT ( #215, #186, ( #75 ) ) ;
#164 = AXIS2_PLACEMENT_3D ( 'NONE', #1, #68, #152 ) ;
#165 = AXIS2_PLACEMENT_3D ( 'NONE', #204, #26, #82 ) ;
#166 = DIRECTION ( 'NONE',  ( 1.000000000000000000, 0.000000000000000000, 0.000000000000000000 ) ) ;
#167 = ORIENTED_EDGE ( 'NONE', *, *, #142, .T. ) ;
#168 = DIRECTION ( 'NONE',  ( -0.000000000000000000, -0.000000000000000000, -1.000000000000000000 ) ) ;
#169 = APPROVAL_DATE_TIME ( #246, #38 ) ;
#170 = CARTESIAN_POINT ( 'NONE',  ( 0.000000000000000000, 0.000000000000000000, 207.0000000000000284 ) ) ;
#171 = DIRECTION ( 'NONE',  ( -1.000000000000000000, 0.000000000000000000, 0.000000000000000000 ) ) ;
#172 = APPROVAL_DATE_TIME ( #155, #40 ) ;
#173 = APPROVAL_PERSON_ORGANIZATION ( #116, #40, #73 ) ;
#174 = DIRECTION ( 'NONE',  ( 1.000000000000000000, 0.000000000000000000, 0.000000000000000000 ) ) ;
#175 = ORIENTED_EDGE ( 'NONE', *, *, #142, .F. ) ;
#176 = APPROVAL_DATE_TIME ( #136, #178 ) ;
#177 = VECTOR ( 'NONE', #87, 1000.000000000000000 ) ;
#178 = APPROVAL ( #71, 'NEURÈENÝ' ) ;
#179 = CIRCLE ( 'NONE', #84, 5.750000000000000000 ) ;
#180 = CARTESIAN_POINT ( 'NONE',  ( 0.000000000000000000, 0.000000000000000000, 0.000000000000000000 ) ) ;
#181 = CYLINDRICAL_SURFACE ( 'NONE', #164, 5.750000000000000000 ) ;
#182 = CIRCLE ( 'NONE', #3, 9.000000000000000000 ) ;
#183 = AXIS2_PLACEMENT_3D ( 'NONE', #231, #93, #171 ) ;
#184 = DIRECTION ( 'NONE',  ( -1.000000000000000000, 0.000000000000000000, 0.000000000000000000 ) ) ;
#185 = CARTESIAN_POINT ( 'NONE',  ( 9.000000000000000000, 1.102182119232617714E-15, 7.000000000000000000 ) ) ;
#186 = PERSON_AND_ORGANIZATION_ROLE ( 'creator' ) ;
#187 = ORIENTED_EDGE ( 'NONE', *, *, #21, .T. ) ;
#188 = CARTESIAN_POINT ( 'NONE',  ( 0.000000000000000000, 0.000000000000000000, 207.0000000000000284 ) ) ;
#189 = DIRECTION ( 'NONE',  ( 1.000000000000000000, 0.000000000000000000, 0.000000000000000000 ) ) ;
#190 = COORDINATED_UNIVERSAL_TIME_OFFSET ( 1, 0, .AHEAD. ) ;
#191 =( NAMED_UNIT ( * ) SI_UNIT ( $, .STERADIAN. ) SOLID_ANGLE_UNIT ( ) );
#192 = DATE_TIME_ROLE ( 'creation_date' ) ;
#193 = DIRECTION ( 'NONE',  ( 0.000000000000000000, 0.000000000000000000, 1.000000000000000000 ) ) ;
#194 = PERSON_AND_ORGANIZATION ( #39, #118 ) ;
#195 = ADVANCED_FACE ( 'NONE', ( #110 ), #51, .T. ) ;
#196 = ORIENTED_EDGE ( 'NONE', *, *, #42, .T. ) ;
#197 = ORIENTED_EDGE ( 'NONE', *, *, #34, .T. ) ;
#198 = ORIENTED_EDGE ( 'NONE', *, *, #117, .T. ) ;
#199 = ADVANCED_FACE ( 'NONE', ( #153 ), #113, .T. ) ;
#200 = CC_DESIGN_APPROVAL ( #178, ( #253 ) ) ;
#201 = LINE ( 'NONE', #112, #177 ) ;
#202 = CARTESIAN_POINT ( 'NONE',  ( -5.750000000000000000, 0.000000000000000000, 207.0000000000000284 ) ) ;
#203 = ORIENTED_EDGE ( 'NONE', *, *, #34, .F. ) ;
#204 = CARTESIAN_POINT ( 'NONE',  ( 0.000000000000000000, 0.000000000000000000, 0.000000000000000000 ) ) ;
#205 = DIRECTION ( 'NONE',  ( 1.000000000000000000, 0.000000000000000000, 0.000000000000000000 ) ) ;
#206 = APPROVAL_ROLE ( '' ) ;
#207 = LOCAL_TIME ( 19, 21, 15.00000000000000000, #154 ) ;
#208 = MANIFOLD_SOLID_BREP ( 'Pøidat vysunutím3', #157 ) ;
#209 = FACE_OUTER_BOUND ( 'NONE', #17, .T. ) ;
#210 = CALENDAR_DATE ( 2022, 7, 7 ) ;
#211 = ORIENTED_EDGE ( 'NONE', *, *, #249, .T. ) ;
#212 = LINE ( 'NONE', #10, #140 ) ;
#213 = DATE_TIME_ROLE ( 'classification_date' ) ;
#214 = CARTESIAN_POINT ( 'NONE',  ( 0.000000000000000000, 0.000000000000000000, 0.000000000000000000 ) ) ;
#215 = PERSON_AND_ORGANIZATION ( #39, #118 ) ;
#216 = CC_DESIGN_PERSON_AND_ORGANIZATION_ASSIGNMENT ( #48, #95, ( #253 ) ) ;
#217 = PERSON_AND_ORGANIZATION ( #39, #118 ) ;
#218 = AXIS2_PLACEMENT_3D ( 'NONE', #104, #227, #132 ) ;
#219 = APPROVAL_PERSON_ORGANIZATION ( #139, #38, #206 ) ;
#220 = EDGE_CURVE ( 'NONE', #4, #145, #182, .T. ) ;
#221 = CIRCLE ( 'NONE', #62, 5.750000000000000000 ) ;
#222 = CARTESIAN_POINT ( 'NONE',  ( -9.000000000000000000, 0.000000000000000000, 7.000000000000000000 ) ) ;
#223 = ORIENTED_EDGE ( 'NONE', *, *, #237, .F. ) ;
#224 = DIRECTION ( 'NONE',  ( 1.000000000000000000, 0.000000000000000000, -0.000000000000000000 ) ) ;
#225 = CARTESIAN_POINT ( 'NONE',  ( 0.000000000000000000, 0.000000000000000000, 7.000000000000000000 ) ) ;
#226 = ORIENTED_EDGE ( 'NONE', *, *, #220, .T. ) ;
#227 = DIRECTION ( 'NONE',  ( 0.000000000000000000, 0.000000000000000000, 1.000000000000000000 ) ) ;
#228 = DIRECTION ( 'NONE',  ( -1.000000000000000000, 0.000000000000000000, 0.000000000000000000 ) ) ;
#229 = CALENDAR_DATE ( 2022, 7, 7 ) ;
#230 = DIRECTION ( 'NONE',  ( -0.000000000000000000, -0.000000000000000000, -1.000000000000000000 ) ) ;
#231 = CARTESIAN_POINT ( 'NONE',  ( 0.000000000000000000, 0.000000000000000000, 7.000000000000000000 ) ) ;
#232 = APPROVAL_ROLE ( '' ) ;
#233 = EDGE_CURVE ( 'NONE', #18, #45, #179, .T. ) ;
#234 = COORDINATED_UNIVERSAL_TIME_OFFSET ( 1, 0, .AHEAD. ) ;
#235 = DATE_AND_TIME ( #131, #207 ) ;
#236 = APPROVAL_PERSON_ORGANIZATION ( #56, #178, #232 ) ;
#237 = EDGE_CURVE ( 'NONE', #55, #43, #221, .T. ) ;
#238 = EDGE_CURVE ( 'NONE', #43, #55, #239, .T. ) ;
#239 = CIRCLE ( 'NONE', #103, 5.750000000000000000 ) ;
#240 = FACE_OUTER_BOUND ( 'NONE', #60, .T. ) ;
#241 = VERTEX_POINT ( 'NONE', #67 ) ;
#242 = DIRECTION ( 'NONE',  ( 0.000000000000000000, 0.000000000000000000, 1.000000000000000000 ) ) ;
#243 = CARTESIAN_POINT ( 'NONE',  ( 5.750000000000000000, 7.041719095097280880E-16, 207.0000000000000284 ) ) ;
#244 = FACE_BOUND ( 'NONE', #128, .T. ) ;
#245 = CARTESIAN_POINT ( 'NONE',  ( 0.000000000000000000, 0.000000000000000000, 7.000000000000000000 ) ) ;
#246 = DATE_AND_TIME ( #229, #96 ) ;
#247 = CARTESIAN_POINT ( 'NONE',  ( 0.000000000000000000, 0.000000000000000000, 207.0000000000000284 ) ) ;
#248 = COORDINATED_UNIVERSAL_TIME_OFFSET ( 1, 0, .AHEAD. ) ;
#249 = EDGE_CURVE ( 'NONE', #45, #18, #59, .T. ) ;
#250 = CC_DESIGN_DATE_AND_TIME_ASSIGNMENT ( #235, #192, ( #75 ) ) ;
#251 = CC_DESIGN_SECURITY_CLASSIFICATION ( #253, ( #79 ) ) ;
#252 = EDGE_LOOP ( 'NONE', ( #12, #41 ) ) ;
#253 = SECURITY_CLASSIFICATION ( '', '', #35 ) ;
#254 = AXIS2_PLACEMENT_3D ( 'NONE', #170, #106, #224 ) ;
#255 = DIRECTION ( 'NONE',  ( 0.000000000000000000, 0.000000000000000000, 1.000000000000000000 ) ) ;
ENDSEC;
END-ISO-10303-21;
