ISO-10303-21;
HEADER;
FILE_DESCRIPTION (( 'STEP AP203' ),
    '1' );
FILE_NAME ('471b.STEP',
    '2022-07-07T17:15:46',
    ( '' ),
    ( '' ),
    'SwSTEP 2.0',
    'SolidWorks 2019',
    '' );
FILE_SCHEMA (( 'CONFIG_CONTROL_DESIGN' ));
ENDSEC;

DATA;
#1 = DIRECTION ( 'NONE',  ( 0.000000000000000000, 0.000000000000000000, 1.000000000000000000 ) ) ;
#2 = CARTESIAN_POINT ( 'NONE',  ( 0.000000000000000000, 0.000000000000000000, 0.000000000000000000 ) ) ;
#3 = CARTESIAN_POINT ( 'NONE',  ( 6.750000000000000000, 8.266365894244634333E-16, 7.000000000000000000 ) ) ;
#4 = DIRECTION ( 'NONE',  ( 0.000000000000000000, 0.000000000000000000, 1.000000000000000000 ) ) ;
#5 = DIRECTION ( 'NONE',  ( 0.000000000000000000, 0.000000000000000000, 1.000000000000000000 ) ) ;
#6 = ADVANCED_BREP_SHAPE_REPRESENTATION ( '471b', ( #99, #58 ), #200 ) ;
#7 = CARTESIAN_POINT ( 'NONE',  ( 0.000000000000000000, 0.000000000000000000, 7.000000000000000000 ) ) ;
#8 = FACE_OUTER_BOUND ( 'NONE', #16, .T. ) ;
#9 = COORDINATED_UNIVERSAL_TIME_OFFSET ( 1, 0, .AHEAD. ) ;
#10 = ORIENTED_EDGE ( 'NONE', *, *, #129, .F. ) ;
#11 = PERSON_AND_ORGANIZATION ( #208, #164 ) ;
#12 = CC_DESIGN_SECURITY_CLASSIFICATION ( #95, ( #18 ) ) ;
#13 = DIRECTION ( 'NONE',  ( 1.000000000000000000, 0.000000000000000000, 0.000000000000000000 ) ) ;
#14 = DIRECTION ( 'NONE',  ( -1.000000000000000000, 0.000000000000000000, 0.000000000000000000 ) ) ;
#15 = VERTEX_POINT ( 'NONE', #67 ) ;
#16 = EDGE_LOOP ( 'NONE', ( #48, #253, #92, #139 ) ) ;
#17 = VECTOR ( 'NONE', #244, 1000.000000000000000 ) ;
#18 = PRODUCT_DEFINITION_FORMATION_WITH_SPECIFIED_SOURCE ( 'LIBOVOLNÝ', '', #236, .NOT_KNOWN. ) ;
#19 = APPLICATION_CONTEXT ( 'configuration controlled 3d designs of mechanical parts and assemblies' ) ;
#20 = APPROVAL ( #119, 'NEURÈENÝ' ) ;
#21 = APPROVAL_PERSON_ORGANIZATION ( #150, #138, #30 ) ;
#22 = DIRECTION ( 'NONE',  ( 1.000000000000000000, 0.000000000000000000, 0.000000000000000000 ) ) ;
#23 = COORDINATED_UNIVERSAL_TIME_OFFSET ( 1, 0, .AHEAD. ) ;
#24 = DIRECTION ( 'NONE',  ( -0.000000000000000000, -0.000000000000000000, -1.000000000000000000 ) ) ;
#25 = DATE_AND_TIME ( #117, #80 ) ;
#26 = CARTESIAN_POINT ( 'NONE',  ( 0.000000000000000000, 0.000000000000000000, 7.000000000000000000 ) ) ;
#27 = EDGE_CURVE ( 'NONE', #104, #29, #114, .T. ) ;
#28 = DIRECTION ( 'NONE',  ( 0.000000000000000000, 0.000000000000000000, 1.000000000000000000 ) ) ;
#29 = VERTEX_POINT ( 'NONE', #189 ) ;
#30 = APPROVAL_ROLE ( '' ) ;
#31 = ORIENTED_EDGE ( 'NONE', *, *, #158, .F. ) ;
#32 = APPROVAL_STATUS ( 'not_yet_approved' ) ;
#33 = ORIENTED_EDGE ( 'NONE', *, *, #141, .T. ) ;
#34 = EDGE_LOOP ( 'NONE', ( #10, #179, #148, #252 ) ) ;
#35 = ORIENTED_EDGE ( 'NONE', *, *, #60, .F. ) ;
#36 = AXIS2_PLACEMENT_3D ( 'NONE', #107, #215, #13 ) ;
#37 = PRODUCT_DEFINITION ( 'NEZNÁMÝ', '', #18, #134 ) ;
#38 = PRODUCT_DEFINITION_SHAPE ( 'NONE', 'NONE',  #37 ) ;
#39 = PLANE ( 'NONE',  #128 ) ;
#40 = FACE_OUTER_BOUND ( 'NONE', #232, .T. ) ;
#41 = PERSON_AND_ORGANIZATION_ROLE ( 'creator' ) ;
#42 = ADVANCED_FACE ( 'NONE', ( #8 ), #65, .T. ) ;
#43 = VECTOR ( 'NONE', #47, 1000.000000000000000 ) ;
#44 = CYLINDRICAL_SURFACE ( 'NONE', #74, 11.00000000000000000 ) ;
#45 = COORDINATED_UNIVERSAL_TIME_OFFSET ( 1, 0, .AHEAD. ) ;
#46 = DIRECTION ( 'NONE',  ( 0.000000000000000000, 0.000000000000000000, 1.000000000000000000 ) ) ;
#47 = DIRECTION ( 'NONE',  ( -0.000000000000000000, -0.000000000000000000, -1.000000000000000000 ) ) ;
#48 = ORIENTED_EDGE ( 'NONE', *, *, #106, .F. ) ;
#49 = DATE_AND_TIME ( #86, #240 ) ;
#50 = PERSON_AND_ORGANIZATION ( #208, #164 ) ;
#51 = CC_DESIGN_DATE_AND_TIME_ASSIGNMENT ( #49, #152, ( #95 ) ) ;
#52 = CC_DESIGN_APPROVAL ( #138, ( #95 ) ) ;
#53 = ORIENTED_EDGE ( 'NONE', *, *, #129, .T. ) ;
#54 = EDGE_LOOP ( 'NONE', ( #85, #235 ) ) ;
#55 = FACE_OUTER_BOUND ( 'NONE', #94, .T. ) ;
#56 = APPROVAL_DATE_TIME ( #25, #20 ) ;
#57 = CARTESIAN_POINT ( 'NONE',  ( 0.000000000000000000, 0.000000000000000000, 0.000000000000000000 ) ) ;
#58 = AXIS2_PLACEMENT_3D ( 'NONE', #2, #4, #243 ) ;
#59 = DATE_AND_TIME ( #241, #131 ) ;
#60 = EDGE_CURVE ( 'NONE', #197, #15, #170, .T. ) ;
#61 = CC_DESIGN_DATE_AND_TIME_ASSIGNMENT ( #59, #145, ( #37 ) ) ;
#62 = CARTESIAN_POINT ( 'NONE',  ( 0.000000000000000000, 0.000000000000000000, 167.0000000000000000 ) ) ;
#63 = AXIS2_PLACEMENT_3D ( 'NONE', #121, #149, #212 ) ;
#64 = CARTESIAN_POINT ( 'NONE',  ( 11.00000000000000000, 1.347111479062088405E-15, 0.000000000000000000 ) ) ;
#65 = CYLINDRICAL_SURFACE ( 'NONE', #63, 6.750000000000000000 ) ;
#66 = SHAPE_DEFINITION_REPRESENTATION ( #38, #6 ) ;
#67 = CARTESIAN_POINT ( 'NONE',  ( -6.750000000000000000, 0.000000000000000000, 7.000000000000000000 ) ) ;
#68 = APPROVAL_STATUS ( 'not_yet_approved' ) ;
#69 = ADVANCED_FACE ( 'NONE', ( #124, #191 ), #39, .T. ) ;
#70 =( NAMED_UNIT ( * ) PLANE_ANGLE_UNIT ( ) SI_UNIT ( $, .RADIAN. ) );
#71 = VERTEX_POINT ( 'NONE', #3 ) ;
#72 = VERTEX_POINT ( 'NONE', #79 ) ;
#73 = CIRCLE ( 'NONE', #225, 11.00000000000000000 ) ;
#74 = AXIS2_PLACEMENT_3D ( 'NONE', #26, #147, #101 ) ;
#75 = LINE ( 'NONE', #168, #140 ) ;
#76 = PERSON_AND_ORGANIZATION ( #208, #164 ) ;
#77 = ADVANCED_FACE ( 'NONE', ( #55 ), #239, .T. ) ;
#78 = ADVANCED_FACE ( 'NONE', ( #40 ), #182, .T. ) ;
#79 = CARTESIAN_POINT ( 'NONE',  ( 6.750000000000000000, 8.266365894244634333E-16, 167.0000000000000000 ) ) ;
#80 = LOCAL_TIME ( 19, 15, 46.00000000000000000, #221 ) ;
#81 = PLANE ( 'NONE',  #112 ) ;
#82 = CARTESIAN_POINT ( 'NONE',  ( -6.750000000000000000, 0.000000000000000000, 167.0000000000000000 ) ) ;
#83 = DIRECTION ( 'NONE',  ( 0.000000000000000000, 0.000000000000000000, 1.000000000000000000 ) ) ;
#84 = AXIS2_PLACEMENT_3D ( 'NONE', #62, #5, #246 ) ;
#85 = ORIENTED_EDGE ( 'NONE', *, *, #113, .F. ) ;
#86 = CALENDAR_DATE ( 2022, 7, 7 ) ;
#87 = DATE_AND_TIME ( #105, #156 ) ;
#88 = DIRECTION ( 'NONE',  ( 0.000000000000000000, 0.000000000000000000, 1.000000000000000000 ) ) ;
#89 = AXIS2_PLACEMENT_3D ( 'NONE', #135, #154, #14 ) ;
#90 = EDGE_CURVE ( 'NONE', #29, #104, #199, .T. ) ;
#91 = CYLINDRICAL_SURFACE ( 'NONE', #89, 11.00000000000000000 ) ;
#92 = ORIENTED_EDGE ( 'NONE', *, *, #60, .T. ) ;
#93 = VECTOR ( 'NONE', #237, 1000.000000000000000 ) ;
#94 = EDGE_LOOP ( 'NONE', ( #31, #157, #33, #35 ) ) ;
#95 = SECURITY_CLASSIFICATION ( '', '', #130 ) ;
#96 = APPROVAL_PERSON_ORGANIZATION ( #166, #20, #224 ) ;
#97 = CARTESIAN_POINT ( 'NONE',  ( 0.000000000000000000, 0.000000000000000000, 7.000000000000000000 ) ) ;
#98 = APPLICATION_PROTOCOL_DEFINITION ( 'international standard', 'config_control_design', 1994, #19 ) ;
#99 = MANIFOLD_SOLID_BREP ( 'Pøidat vysunutím3', #180 ) ;
#100 = CARTESIAN_POINT ( 'NONE',  ( 0.000000000000000000, 0.000000000000000000, 167.0000000000000000 ) ) ;
#101 = DIRECTION ( 'NONE',  ( -1.000000000000000000, 0.000000000000000000, 0.000000000000000000 ) ) ;
#102 = FACE_OUTER_BOUND ( 'NONE', #34, .T. ) ;
#103 = ORIENTED_EDGE ( 'NONE', *, *, #27, .T. ) ;
#104 = VERTEX_POINT ( 'NONE', #118 ) ;
#105 = CALENDAR_DATE ( 2022, 7, 7 ) ;
#106 = EDGE_CURVE ( 'NONE', #72, #71, #220, .T. ) ;
#107 = CARTESIAN_POINT ( 'NONE',  ( 0.000000000000000000, 0.000000000000000000, 167.0000000000000000 ) ) ;
#108 = CC_DESIGN_PERSON_AND_ORGANIZATION_ASSIGNMENT ( #11, #122, ( #18 ) ) ;
#109 =( LENGTH_UNIT ( ) NAMED_UNIT ( * ) SI_UNIT ( .MILLI., .METRE. ) );
#110 = ORIENTED_EDGE ( 'NONE', *, *, #249, .T. ) ;
#111 = ORIENTED_EDGE ( 'NONE', *, *, #158, .T. ) ;
#112 = AXIS2_PLACEMENT_3D ( 'NONE', #194, #88, #251 ) ;
#113 = EDGE_CURVE ( 'NONE', #155, #137, #73, .T. ) ;
#114 = CIRCLE ( 'NONE', #201, 11.00000000000000000 ) ;
#115 = CC_DESIGN_APPROVAL ( #233, ( #18 ) ) ;
#116 = DIRECTION ( 'NONE',  ( -1.000000000000000000, 0.000000000000000000, 0.000000000000000000 ) ) ;
#117 = CALENDAR_DATE ( 2022, 7, 7 ) ;
#118 = CARTESIAN_POINT ( 'NONE',  ( 11.00000000000000000, 1.347111479062088405E-15, 7.000000000000000000 ) ) ;
#119 = APPROVAL_STATUS ( 'not_yet_approved' ) ;
#120 = CARTESIAN_POINT ( 'NONE',  ( -11.00000000000000000, 0.000000000000000000, 0.000000000000000000 ) ) ;
#121 = CARTESIAN_POINT ( 'NONE',  ( 0.000000000000000000, 0.000000000000000000, 167.0000000000000000 ) ) ;
#122 = PERSON_AND_ORGANIZATION_ROLE ( 'creator' ) ;
#123 = DIRECTION ( 'NONE',  ( 1.000000000000000000, 0.000000000000000000, 0.000000000000000000 ) ) ;
#124 = FACE_BOUND ( 'NONE', #218, .T. ) ;
#125 = APPROVAL_DATE_TIME ( #87, #233 ) ;
#126 = DIRECTION ( 'NONE',  ( 1.000000000000000000, 0.000000000000000000, 0.000000000000000000 ) ) ;
#127 = PERSON_AND_ORGANIZATION_ROLE ( 'classification_officer' ) ;
#128 = AXIS2_PLACEMENT_3D ( 'NONE', #97, #204, #223 ) ;
#129 = EDGE_CURVE ( 'NONE', #104, #137, #75, .T. ) ;
#130 = SECURITY_CLASSIFICATION_LEVEL ( 'unclassified' ) ;
#131 = LOCAL_TIME ( 19, 15, 46.00000000000000000, #23 ) ;
#132 = ORIENTED_EDGE ( 'NONE', *, *, #167, .F. ) ;
#133 = PERSON_AND_ORGANIZATION ( #208, #164 ) ;
#134 = DESIGN_CONTEXT ( 'detailed design', #19, 'design' ) ;
#135 = CARTESIAN_POINT ( 'NONE',  ( 0.000000000000000000, 0.000000000000000000, 7.000000000000000000 ) ) ;
#136 = CIRCLE ( 'NONE', #84, 6.750000000000000000 ) ;
#137 = VERTEX_POINT ( 'NONE', #64 ) ;
#138 = APPROVAL ( #68, 'NEURÈENÝ' ) ;
#139 = ORIENTED_EDGE ( 'NONE', *, *, #167, .T. ) ;
#140 = VECTOR ( 'NONE', #211, 1000.000000000000000 ) ;
#141 = EDGE_CURVE ( 'NONE', #71, #15, #238, .T. ) ;
#142 = DIRECTION ( 'NONE',  ( 0.000000000000000000, 0.000000000000000000, 1.000000000000000000 ) ) ;
#143 = APPLICATION_PROTOCOL_DEFINITION ( 'international standard', 'config_control_design', 1994, #175 ) ;
#144 = DIRECTION ( 'NONE',  ( 0.000000000000000000, 0.000000000000000000, 1.000000000000000000 ) ) ;
#145 = DATE_TIME_ROLE ( 'creation_date' ) ;
#146 = DIRECTION ( 'NONE',  ( 1.000000000000000000, 0.000000000000000000, 0.000000000000000000 ) ) ;
#147 = DIRECTION ( 'NONE',  ( -0.000000000000000000, -0.000000000000000000, -1.000000000000000000 ) ) ;
#148 = ORIENTED_EDGE ( 'NONE', *, *, #159, .T. ) ;
#149 = DIRECTION ( 'NONE',  ( -0.000000000000000000, -0.000000000000000000, -1.000000000000000000 ) ) ;
#150 = PERSON_AND_ORGANIZATION ( #208, #164 ) ;
#151 = AXIS2_PLACEMENT_3D ( 'NONE', #7, #46, #123 ) ;
#152 = DATE_TIME_ROLE ( 'classification_date' ) ;
#153 =( NAMED_UNIT ( * ) SI_UNIT ( $, .STERADIAN. ) SOLID_ANGLE_UNIT ( ) );
#154 = DIRECTION ( 'NONE',  ( -0.000000000000000000, -0.000000000000000000, -1.000000000000000000 ) ) ;
#155 = VERTEX_POINT ( 'NONE', #120 ) ;
#156 = LOCAL_TIME ( 19, 15, 46.00000000000000000, #45 ) ;
#157 = ORIENTED_EDGE ( 'NONE', *, *, #106, .T. ) ;
#158 = EDGE_CURVE ( 'NONE', #72, #197, #136, .T. ) ;
#159 = EDGE_CURVE ( 'NONE', #29, #155, #226, .T. ) ;
#160 = CARTESIAN_POINT ( 'NONE',  ( 0.000000000000000000, 0.000000000000000000, 7.000000000000000000 ) ) ;
#161 = CIRCLE ( 'NONE', #255, 6.750000000000000000 ) ;
#162 = DIRECTION ( 'NONE',  ( 1.000000000000000000, 0.000000000000000000, -0.000000000000000000 ) ) ;
#163 = PERSON_AND_ORGANIZATION_ROLE ( 'design_owner' ) ;
#164 = ORGANIZATION ( 'NEURÈENÝ', 'NEURÈENÝ', '' ) ;
#165 = CARTESIAN_POINT ( 'NONE',  ( 0.000000000000000000, 0.000000000000000000, 167.0000000000000000 ) ) ;
#166 = PERSON_AND_ORGANIZATION ( #208, #164 ) ;
#167 = EDGE_CURVE ( 'NONE', #15, #71, #161, .T. ) ;
#168 = CARTESIAN_POINT ( 'NONE',  ( 11.00000000000000000, 1.347111479062088405E-15, 7.000000000000000000 ) ) ;
#169 = DIRECTION ( 'NONE',  ( 1.000000000000000000, 0.000000000000000000, 0.000000000000000000 ) ) ;
#170 = LINE ( 'NONE', #247, #43 ) ;
#171 = AXIS2_PLACEMENT_3D ( 'NONE', #160, #142, #202 ) ;
#172 = LOCAL_TIME ( 19, 15, 46.00000000000000000, #9 ) ;
#173 = EDGE_LOOP ( 'NONE', ( #210, #53, #229, #234 ) ) ;
#174 = APPROVAL_DATE_TIME ( #213, #138 ) ;
#175 = APPLICATION_CONTEXT ( 'configuration controlled 3d designs of mechanical parts and assemblies' ) ;
#176 = PRODUCT_RELATED_PRODUCT_CATEGORY ( 'detail', '', ( #236 ) ) ;
#177 = PERSON_AND_ORGANIZATION_ROLE ( 'design_supplier' ) ;
#178 = ORIENTED_EDGE ( 'NONE', *, *, #90, .T. ) ;
#179 = ORIENTED_EDGE ( 'NONE', *, *, #90, .F. ) ;
#180 = CLOSED_SHELL ( 'NONE', ( #77, #254, #185, #69, #231, #42, #78 ) ) ;
#181 = CC_DESIGN_PERSON_AND_ORGANIZATION_ASSIGNMENT ( #190, #127, ( #95 ) ) ;
#182 = PLANE ( 'NONE',  #245 ) ;
#183 = CARTESIAN_POINT ( 'NONE',  ( 6.750000000000000000, 8.266365894244634333E-16, 167.0000000000000000 ) ) ;
#184 = MECHANICAL_CONTEXT ( 'NONE', #175, 'mechanical' ) ;
#185 = ADVANCED_FACE ( 'NONE', ( #102 ), #44, .T. ) ;
#186 = CC_DESIGN_PERSON_AND_ORGANIZATION_ASSIGNMENT ( #133, #177, ( #18 ) ) ;
#187 = DIRECTION ( 'NONE',  ( 0.000000000000000000, 0.000000000000000000, 1.000000000000000000 ) ) ;
#188 = CARTESIAN_POINT ( 'NONE',  ( 0.000000000000000000, 0.000000000000000000, 0.000000000000000000 ) ) ;
#189 = CARTESIAN_POINT ( 'NONE',  ( -11.00000000000000000, 0.000000000000000000, 7.000000000000000000 ) ) ;
#190 = PERSON_AND_ORGANIZATION ( #208, #164 ) ;
#191 = FACE_OUTER_BOUND ( 'NONE', #198, .T. ) ;
#192 = COORDINATED_UNIVERSAL_TIME_OFFSET ( 1, 0, .AHEAD. ) ;
#193 = UNCERTAINTY_MEASURE_WITH_UNIT (LENGTH_MEASURE( 1.000000000000000082E-05 ), #109, 'distance_accuracy_value', 'NONE');
#194 = CARTESIAN_POINT ( 'NONE',  ( 0.000000000000000000, 0.000000000000000000, 0.000000000000000000 ) ) ;
#195 = AXIS2_PLACEMENT_3D ( 'NONE', #165, #24, #116 ) ;
#196 = FACE_OUTER_BOUND ( 'NONE', #173, .T. ) ;
#197 = VERTEX_POINT ( 'NONE', #82 ) ;
#198 = EDGE_LOOP ( 'NONE', ( #178, #103 ) ) ;
#199 = CIRCLE ( 'NONE', #171, 11.00000000000000000 ) ;
#200 =( GEOMETRIC_REPRESENTATION_CONTEXT ( 3 ) GLOBAL_UNCERTAINTY_ASSIGNED_CONTEXT ( ( #193 ) ) GLOBAL_UNIT_ASSIGNED_CONTEXT ( ( #109, #70, #153 ) ) REPRESENTATION_CONTEXT ( 'NONE', 'WORKASPACE' ) );
#201 = AXIS2_PLACEMENT_3D ( 'NONE', #248, #83, #126 ) ;
#202 = DIRECTION ( 'NONE',  ( 1.000000000000000000, 0.000000000000000000, 0.000000000000000000 ) ) ;
#203 = PERSON_AND_ORGANIZATION ( #208, #164 ) ;
#204 = DIRECTION ( 'NONE',  ( 0.000000000000000000, 0.000000000000000000, 1.000000000000000000 ) ) ;
#205 = CC_DESIGN_PERSON_AND_ORGANIZATION_ASSIGNMENT ( #203, #41, ( #37 ) ) ;
#206 = CIRCLE ( 'NONE', #36, 6.750000000000000000 ) ;
#207 = CARTESIAN_POINT ( 'NONE',  ( -11.00000000000000000, 0.000000000000000000, 7.000000000000000000 ) ) ;
#208 = PERSON ( 'NEURÈENÝ', 'NEURÈENÝ', 'NEURÈENÝ', ('NEURÈENÝ'), ('NEURÈENÝ'), ('NEURÈENÝ') ) ;
#209 = CARTESIAN_POINT ( 'NONE',  ( 0.000000000000000000, 0.000000000000000000, 7.000000000000000000 ) ) ;
#210 = ORIENTED_EDGE ( 'NONE', *, *, #27, .F. ) ;
#211 = DIRECTION ( 'NONE',  ( -0.000000000000000000, -0.000000000000000000, -1.000000000000000000 ) ) ;
#212 = DIRECTION ( 'NONE',  ( -1.000000000000000000, 0.000000000000000000, 0.000000000000000000 ) ) ;
#213 = DATE_AND_TIME ( #227, #172 ) ;
#214 = APPROVAL_PERSON_ORGANIZATION ( #50, #233, #216 ) ;
#215 = DIRECTION ( 'NONE',  ( 0.000000000000000000, 0.000000000000000000, 1.000000000000000000 ) ) ;
#216 = APPROVAL_ROLE ( '' ) ;
#217 = CIRCLE ( 'NONE', #230, 11.00000000000000000 ) ;
#218 = EDGE_LOOP ( 'NONE', ( #132, #219 ) ) ;
#219 = ORIENTED_EDGE ( 'NONE', *, *, #141, .F. ) ;
#220 = LINE ( 'NONE', #183, #93 ) ;
#221 = COORDINATED_UNIVERSAL_TIME_OFFSET ( 1, 0, .AHEAD. ) ;
#222 = EDGE_CURVE ( 'NONE', #137, #155, #217, .T. ) ;
#223 = DIRECTION ( 'NONE',  ( 1.000000000000000000, 0.000000000000000000, -0.000000000000000000 ) ) ;
#224 = APPROVAL_ROLE ( '' ) ;
#225 = AXIS2_PLACEMENT_3D ( 'NONE', #57, #144, #22 ) ;
#226 = LINE ( 'NONE', #207, #17 ) ;
#227 = CALENDAR_DATE ( 2022, 7, 7 ) ;
#228 = FACE_OUTER_BOUND ( 'NONE', #54, .T. ) ;
#229 = ORIENTED_EDGE ( 'NONE', *, *, #222, .T. ) ;
#230 = AXIS2_PLACEMENT_3D ( 'NONE', #188, #187, #169 ) ;
#231 = ADVANCED_FACE ( 'NONE', ( #228 ), #81, .F. ) ;
#232 = EDGE_LOOP ( 'NONE', ( #110, #111 ) ) ;
#233 = APPROVAL ( #32, 'NEURÈENÝ' ) ;
#234 = ORIENTED_EDGE ( 'NONE', *, *, #159, .F. ) ;
#235 = ORIENTED_EDGE ( 'NONE', *, *, #222, .F. ) ;
#236 = PRODUCT ( '471b', '471b', '', ( #184 ) ) ;
#237 = DIRECTION ( 'NONE',  ( -0.000000000000000000, -0.000000000000000000, -1.000000000000000000 ) ) ;
#238 = CIRCLE ( 'NONE', #151, 6.750000000000000000 ) ;
#239 = CYLINDRICAL_SURFACE ( 'NONE', #195, 6.750000000000000000 ) ;
#240 = LOCAL_TIME ( 19, 15, 46.00000000000000000, #192 ) ;
#241 = CALENDAR_DATE ( 2022, 7, 7 ) ;
#242 = CC_DESIGN_APPROVAL ( #20, ( #37 ) ) ;
#243 = DIRECTION ( 'NONE',  ( 1.000000000000000000, 0.000000000000000000, 0.000000000000000000 ) ) ;
#244 = DIRECTION ( 'NONE',  ( -0.000000000000000000, -0.000000000000000000, -1.000000000000000000 ) ) ;
#245 = AXIS2_PLACEMENT_3D ( 'NONE', #100, #1, #162 ) ;
#246 = DIRECTION ( 'NONE',  ( 1.000000000000000000, 0.000000000000000000, 0.000000000000000000 ) ) ;
#247 = CARTESIAN_POINT ( 'NONE',  ( -6.750000000000000000, 0.000000000000000000, 167.0000000000000000 ) ) ;
#248 = CARTESIAN_POINT ( 'NONE',  ( 0.000000000000000000, 0.000000000000000000, 7.000000000000000000 ) ) ;
#249 = EDGE_CURVE ( 'NONE', #197, #72, #206, .T. ) ;
#250 = CC_DESIGN_PERSON_AND_ORGANIZATION_ASSIGNMENT ( #76, #163, ( #236 ) ) ;
#251 = DIRECTION ( 'NONE',  ( 1.000000000000000000, 0.000000000000000000, -0.000000000000000000 ) ) ;
#252 = ORIENTED_EDGE ( 'NONE', *, *, #113, .T. ) ;
#253 = ORIENTED_EDGE ( 'NONE', *, *, #249, .F. ) ;
#254 = ADVANCED_FACE ( 'NONE', ( #196 ), #91, .T. ) ;
#255 = AXIS2_PLACEMENT_3D ( 'NONE', #209, #28, #146 ) ;
ENDSEC;
END-ISO-10303-21;
