ISO-10303-21;
HEADER;
FILE_DESCRIPTION (( 'STEP AP203' ),
    '1' );
FILE_NAME ('c1a0.STEP',
    '2023-04-21T07:17:48',
    ( '' ),
    ( '' ),
    'SwSTEP 2.0',
    'SolidWorks 2019',
    '' );
FILE_SCHEMA (( 'CONFIG_CONTROL_DESIGN' ));
ENDSEC;

DATA;
#1 = PERSON ( 'NEURÈENÝ', 'NEURÈENÝ', 'NEURÈENÝ', ('NEURÈENÝ'), ('NEURÈENÝ'), ('NEURÈENÝ') ) ;
#2 = CARTESIAN_POINT ( 'NONE',  ( 0.000000000000000000, 0.000000000000000000, 95.40000000000000568 ) ) ;
#3 = CARTESIAN_POINT ( 'NONE',  ( 2.000000000000000000, 2.449293598294706414E-16, 2.000000000000000000 ) ) ;
#4 = CARTESIAN_POINT ( 'NONE',  ( 0.000000000000000000, 0.000000000000000000, 2.000000000000000000 ) ) ;
#5 = PLANE ( 'NONE',  #111 ) ;
#6 = APPROVAL ( #146, 'NEURÈENÝ' ) ;
#7 = CYLINDRICAL_SURFACE ( 'NONE', #227, 2.000000000000000000 ) ;
#8 = CARTESIAN_POINT ( 'NONE',  ( 0.000000000000000000, 0.000000000000000000, 95.40000000000000568 ) ) ;
#9 = CC_DESIGN_PERSON_AND_ORGANIZATION_ASSIGNMENT ( #14, #27, ( #230 ) ) ;
#10 = CC_DESIGN_APPROVAL ( #6, ( #114 ) ) ;
#11 = CALENDAR_DATE ( 2023, 21, 4 ) ;
#12 = ADVANCED_FACE ( 'NONE', ( #129 ), #149, .T. ) ;
#13 = AXIS2_PLACEMENT_3D ( 'NONE', #157, #245, #203 ) ;
#14 = PERSON_AND_ORGANIZATION ( #1, #39 ) ;
#15 = EDGE_LOOP ( 'NONE', ( #88, #214, #75, #240 ) ) ;
#16 = ORIENTED_EDGE ( 'NONE', *, *, #224, .T. ) ;
#17 = FACE_BOUND ( 'NONE', #212, .T. ) ;
#18 = VERTEX_POINT ( 'NONE', #91 ) ;
#19 = DIRECTION ( 'NONE',  ( 0.000000000000000000, 0.000000000000000000, 1.000000000000000000 ) ) ;
#20 = AXIS2_PLACEMENT_3D ( 'NONE', #50, #186, #87 ) ;
#21 = DIRECTION ( 'NONE',  ( 1.000000000000000000, 0.000000000000000000, 0.000000000000000000 ) ) ;
#22 = FACE_OUTER_BOUND ( 'NONE', #72, .T. ) ;
#23 = AXIS2_PLACEMENT_3D ( 'NONE', #79, #118, #95 ) ;
#24 = CARTESIAN_POINT ( 'NONE',  ( -2.000000000000000000, 0.000000000000000000, 2.000000000000000000 ) ) ;
#25 = DIRECTION ( 'NONE',  ( 1.000000000000000000, 0.000000000000000000, 0.000000000000000000 ) ) ;
#26 = APPROVAL_DATE_TIME ( #211, #6 ) ;
#27 = PERSON_AND_ORGANIZATION_ROLE ( 'classification_officer' ) ;
#28 = DATE_TIME_ROLE ( 'classification_date' ) ;
#29 = ORIENTED_EDGE ( 'NONE', *, *, #80, .T. ) ;
#30 = SHAPE_DEFINITION_REPRESENTATION ( #77, #202 ) ;
#31 = CALENDAR_DATE ( 2023, 21, 4 ) ;
#32 = AXIS2_PLACEMENT_3D ( 'NONE', #225, #221, #38 ) ;
#33 = ORIENTED_EDGE ( 'NONE', *, *, #189, .F. ) ;
#34 = DIRECTION ( 'NONE',  ( -0.000000000000000000, -0.000000000000000000, -1.000000000000000000 ) ) ;
#35 = DIRECTION ( 'NONE',  ( -0.000000000000000000, -0.000000000000000000, -1.000000000000000000 ) ) ;
#36 = APPROVAL ( #228, 'NEURÈENÝ' ) ;
#37 = DIRECTION ( 'NONE',  ( 1.000000000000000000, 0.000000000000000000, 0.000000000000000000 ) ) ;
#38 = DIRECTION ( 'NONE',  ( 1.000000000000000000, 0.000000000000000000, 0.000000000000000000 ) ) ;
#39 = ORGANIZATION ( 'NEURÈENÝ', 'NEURÈENÝ', '' ) ;
#40 = CC_DESIGN_PERSON_AND_ORGANIZATION_ASSIGNMENT ( #187, #125, ( #247 ) ) ;
#41 = FACE_OUTER_BOUND ( 'NONE', #150, .T. ) ;
#42 =( NAMED_UNIT ( * ) PLANE_ANGLE_UNIT ( ) SI_UNIT ( $, .RADIAN. ) );
#43 = FACE_OUTER_BOUND ( 'NONE', #89, .T. ) ;
#44 = DIRECTION ( 'NONE',  ( 1.000000000000000000, 0.000000000000000000, 0.000000000000000000 ) ) ;
#45 = CALENDAR_DATE ( 2023, 21, 4 ) ;
#46 = EDGE_CURVE ( 'NONE', #192, #48, #216, .T. ) ;
#47 = VECTOR ( 'NONE', #137, 1000.000000000000000 ) ;
#48 = VERTEX_POINT ( 'NONE', #108 ) ;
#49 = PERSON_AND_ORGANIZATION ( #1, #39 ) ;
#50 = CARTESIAN_POINT ( 'NONE',  ( 0.000000000000000000, 0.000000000000000000, 0.000000000000000000 ) ) ;
#51 = EDGE_CURVE ( 'NONE', #67, #191, #194, .T. ) ;
#52 = APPROVAL_PERSON_ORGANIZATION ( #101, #106, #249 ) ;
#53 = DIRECTION ( 'NONE',  ( -0.000000000000000000, -0.000000000000000000, -1.000000000000000000 ) ) ;
#54 = ORIENTED_EDGE ( 'NONE', *, *, #168, .F. ) ;
#55 = ADVANCED_FACE ( 'NONE', ( #17, #171 ), #255, .T. ) ;
#56 = DIRECTION ( 'NONE',  ( -1.000000000000000000, 0.000000000000000000, 0.000000000000000000 ) ) ;
#57 = PRODUCT ( 'c1a0', 'c1a0', '', ( #161 ) ) ;
#58 = ORIENTED_EDGE ( 'NONE', *, *, #189, .T. ) ;
#59 = CARTESIAN_POINT ( 'NONE',  ( -1.000000000000000000, 0.000000000000000000, 95.40000000000000568 ) ) ;
#60 = PLANE ( 'NONE',  #86 ) ;
#61 = CC_DESIGN_SECURITY_CLASSIFICATION ( #230, ( #114 ) ) ;
#62 = CARTESIAN_POINT ( 'NONE',  ( 0.000000000000000000, 0.000000000000000000, 2.000000000000000000 ) ) ;
#63 = DIRECTION ( 'NONE',  ( 1.000000000000000000, 0.000000000000000000, 0.000000000000000000 ) ) ;
#64 = DIRECTION ( 'NONE',  ( -0.000000000000000000, -0.000000000000000000, -1.000000000000000000 ) ) ;
#65 = COORDINATED_UNIVERSAL_TIME_OFFSET ( 1, 0, .AHEAD. ) ;
#66 = PERSON_AND_ORGANIZATION ( #1, #39 ) ;
#67 = VERTEX_POINT ( 'NONE', #173 ) ;
#68 = DATE_AND_TIME ( #71, #233 ) ;
#69 = CIRCLE ( 'NONE', #103, 2.000000000000000000 ) ;
#70 = DATE_TIME_ROLE ( 'creation_date' ) ;
#71 = CALENDAR_DATE ( 2023, 21, 4 ) ;
#72 = EDGE_LOOP ( 'NONE', ( #235, #218, #100, #252 ) ) ;
#73 = EDGE_LOOP ( 'NONE', ( #154, #219 ) ) ;
#74 = CARTESIAN_POINT ( 'NONE',  ( 0.000000000000000000, 0.000000000000000000, 2.000000000000000000 ) ) ;
#75 = ORIENTED_EDGE ( 'NONE', *, *, #220, .T. ) ;
#76 = VERTEX_POINT ( 'NONE', #109 ) ;
#77 = PRODUCT_DEFINITION_SHAPE ( 'NONE', 'NONE',  #247 ) ;
#78 = CYLINDRICAL_SURFACE ( 'NONE', #199, 1.000000000000000000 ) ;
#79 = CARTESIAN_POINT ( 'NONE',  ( 0.000000000000000000, 0.000000000000000000, 2.000000000000000000 ) ) ;
#80 = EDGE_CURVE ( 'NONE', #18, #192, #130, .T. ) ;
#81 = DIRECTION ( 'NONE',  ( 0.000000000000000000, 0.000000000000000000, 1.000000000000000000 ) ) ;
#82 = DIRECTION ( 'NONE',  ( -1.000000000000000000, 0.000000000000000000, 0.000000000000000000 ) ) ;
#83 = CC_DESIGN_APPROVAL ( #106, ( #247 ) ) ;
#84 = APPROVAL_DATE_TIME ( #209, #106 ) ;
#85 = APPLICATION_PROTOCOL_DEFINITION ( 'international standard', 'config_control_design', 1994, #165 ) ;
#86 = AXIS2_PLACEMENT_3D ( 'NONE', #117, #81, #205 ) ;
#87 = DIRECTION ( 'NONE',  ( 1.000000000000000000, 0.000000000000000000, 0.000000000000000000 ) ) ;
#88 = ORIENTED_EDGE ( 'NONE', *, *, #239, .F. ) ;
#89 = EDGE_LOOP ( 'NONE', ( #169, #29 ) ) ;
#90 = EDGE_LOOP ( 'NONE', ( #131, #122, #197, #153 ) ) ;
#91 = CARTESIAN_POINT ( 'NONE',  ( 1.000000000000000000, 1.224646799147353207E-16, 95.40000000000000568 ) ) ;
#92 = EDGE_CURVE ( 'NONE', #76, #191, #164, .T. ) ;
#93 = DIRECTION ( 'NONE',  ( 0.000000000000000000, 0.000000000000000000, 1.000000000000000000 ) ) ;
#94 = DIRECTION ( 'NONE',  ( 0.000000000000000000, 0.000000000000000000, 1.000000000000000000 ) ) ;
#95 = DIRECTION ( 'NONE',  ( 1.000000000000000000, 0.000000000000000000, 0.000000000000000000 ) ) ;
#96 = MANIFOLD_SOLID_BREP ( 'Pøidat vysunutím3', #143 ) ;
#97 = ADVANCED_FACE ( 'NONE', ( #43 ), #5, .T. ) ;
#98 = DIRECTION ( 'NONE',  ( 0.000000000000000000, 0.000000000000000000, 1.000000000000000000 ) ) ;
#99 = LOCAL_TIME ( 9, 17, 48.00000000000000000, #121 ) ;
#100 = ORIENTED_EDGE ( 'NONE', *, *, #46, .T. ) ;
#101 = PERSON_AND_ORGANIZATION ( #1, #39 ) ;
#102 = AXIS2_PLACEMENT_3D ( 'NONE', #234, #53, #56 ) ;
#103 = AXIS2_PLACEMENT_3D ( 'NONE', #226, #158, #44 ) ;
#104 = PERSON_AND_ORGANIZATION_ROLE ( 'design_supplier' ) ;
#105 = ORIENTED_EDGE ( 'NONE', *, *, #51, .F. ) ;
#106 = APPROVAL ( #167, 'NEURÈENÝ' ) ;
#107 = ORIENTED_EDGE ( 'NONE', *, *, #239, .T. ) ;
#108 = CARTESIAN_POINT ( 'NONE',  ( -1.000000000000000000, 0.000000000000000000, 2.000000000000000000 ) ) ;
#109 = CARTESIAN_POINT ( 'NONE',  ( -2.000000000000000000, 0.000000000000000000, 0.000000000000000000 ) ) ;
#110 = VERTEX_POINT ( 'NONE', #24 ) ;
#111 = AXIS2_PLACEMENT_3D ( 'NONE', #8, #94, #241 ) ;
#112 = APPLICATION_CONTEXT ( 'configuration controlled 3d designs of mechanical parts and assemblies' ) ;
#113 = FACE_OUTER_BOUND ( 'NONE', #73, .T. ) ;
#114 = PRODUCT_DEFINITION_FORMATION_WITH_SPECIFIED_SOURCE ( 'LIBOVOLNÝ', '', #57, .NOT_KNOWN. ) ;
#115 = DIRECTION ( 'NONE',  ( 1.000000000000000000, 0.000000000000000000, 0.000000000000000000 ) ) ;
#116 = VECTOR ( 'NONE', #134, 1000.000000000000000 ) ;
#117 = CARTESIAN_POINT ( 'NONE',  ( 0.000000000000000000, 0.000000000000000000, 0.000000000000000000 ) ) ;
#118 = DIRECTION ( 'NONE',  ( 0.000000000000000000, 0.000000000000000000, 1.000000000000000000 ) ) ;
#119 = CC_DESIGN_DATE_AND_TIME_ASSIGNMENT ( #231, #28, ( #230 ) ) ;
#120 = COORDINATED_UNIVERSAL_TIME_OFFSET ( 1, 0, .AHEAD. ) ;
#121 = COORDINATED_UNIVERSAL_TIME_OFFSET ( 1, 0, .AHEAD. ) ;
#122 = ORIENTED_EDGE ( 'NONE', *, *, #162, .T. ) ;
#123 = APPROVAL_DATE_TIME ( #207, #36 ) ;
#124 = ADVANCED_FACE ( 'NONE', ( #113 ), #60, .F. ) ;
#125 = PERSON_AND_ORGANIZATION_ROLE ( 'creator' ) ;
#126 = CIRCLE ( 'NONE', #188, 1.000000000000000000 ) ;
#127 =( GEOMETRIC_REPRESENTATION_CONTEXT ( 3 ) GLOBAL_UNCERTAINTY_ASSIGNED_CONTEXT ( ( #196 ) ) GLOBAL_UNIT_ASSIGNED_CONTEXT ( ( #183, #42, #180 ) ) REPRESENTATION_CONTEXT ( 'NONE', 'WORKASPACE' ) );
#128 = ORIENTED_EDGE ( 'NONE', *, *, #195, .F. ) ;
#129 = FACE_OUTER_BOUND ( 'NONE', #15, .T. ) ;
#130 = CIRCLE ( 'NONE', #222, 1.000000000000000000 ) ;
#131 = ORIENTED_EDGE ( 'NONE', *, *, #80, .F. ) ;
#132 = DIRECTION ( 'NONE',  ( 0.000000000000000000, 0.000000000000000000, 1.000000000000000000 ) ) ;
#133 = CC_DESIGN_PERSON_AND_ORGANIZATION_ASSIGNMENT ( #49, #163, ( #114 ) ) ;
#134 = DIRECTION ( 'NONE',  ( -0.000000000000000000, -0.000000000000000000, -1.000000000000000000 ) ) ;
#135 = CARTESIAN_POINT ( 'NONE',  ( 0.000000000000000000, 0.000000000000000000, 95.40000000000000568 ) ) ;
#136 = DIRECTION ( 'NONE',  ( 0.000000000000000000, 0.000000000000000000, 1.000000000000000000 ) ) ;
#137 = DIRECTION ( 'NONE',  ( -0.000000000000000000, -0.000000000000000000, -1.000000000000000000 ) ) ;
#138 = CIRCLE ( 'NONE', #147, 1.000000000000000000 ) ;
#139 = DIRECTION ( 'NONE',  ( -0.000000000000000000, -0.000000000000000000, -1.000000000000000000 ) ) ;
#140 = ADVANCED_FACE ( 'NONE', ( #22 ), #178, .T. ) ;
#141 = PERSON_AND_ORGANIZATION_ROLE ( 'design_owner' ) ;
#142 = PERSON_AND_ORGANIZATION ( #1, #39 ) ;
#143 = CLOSED_SHELL ( 'NONE', ( #215, #12, #177, #55, #124, #140, #97 ) ) ;
#144 = PRODUCT_RELATED_PRODUCT_CATEGORY ( 'detail', '', ( #57 ) ) ;
#145 = CALENDAR_DATE ( 2023, 21, 4 ) ;
#146 = APPROVAL_STATUS ( 'not_yet_approved' ) ;
#147 = AXIS2_PLACEMENT_3D ( 'NONE', #135, #159, #63 ) ;
#148 = LOCAL_TIME ( 9, 17, 48.00000000000000000, #65 ) ;
#149 = CYLINDRICAL_SURFACE ( 'NONE', #102, 2.000000000000000000 ) ;
#150 = EDGE_LOOP ( 'NONE', ( #105, #33, #16, #170 ) ) ;
#151 = DIRECTION ( 'NONE',  ( 1.000000000000000000, 0.000000000000000000, -0.000000000000000000 ) ) ;
#152 = CC_DESIGN_PERSON_AND_ORGANIZATION_ASSIGNMENT ( #66, #141, ( #57 ) ) ;
#153 = ORIENTED_EDGE ( 'NONE', *, *, #46, .F. ) ;
#154 = ORIENTED_EDGE ( 'NONE', *, *, #92, .F. ) ;
#155 = CARTESIAN_POINT ( 'NONE',  ( 0.000000000000000000, 0.000000000000000000, 95.40000000000000568 ) ) ;
#156 = AXIS2_PLACEMENT_3D ( 'NONE', #74, #93, #151 ) ;
#157 = CARTESIAN_POINT ( 'NONE',  ( 0.000000000000000000, 0.000000000000000000, 95.40000000000000568 ) ) ;
#158 = DIRECTION ( 'NONE',  ( 0.000000000000000000, 0.000000000000000000, 1.000000000000000000 ) ) ;
#159 = DIRECTION ( 'NONE',  ( 0.000000000000000000, 0.000000000000000000, 1.000000000000000000 ) ) ;
#160 = APPROVAL_ROLE ( '' ) ;
#161 = MECHANICAL_CONTEXT ( 'NONE', #165, 'mechanical' ) ;
#162 = EDGE_CURVE ( 'NONE', #18, #176, #181, .T. ) ;
#163 = PERSON_AND_ORGANIZATION_ROLE ( 'creator' ) ;
#164 = CIRCLE ( 'NONE', #251, 2.000000000000000000 ) ;
#165 = APPLICATION_CONTEXT ( 'configuration controlled 3d designs of mechanical parts and assemblies' ) ;
#166 = AXIS2_PLACEMENT_3D ( 'NONE', #62, #136, #25 ) ;
#167 = APPROVAL_STATUS ( 'not_yet_approved' ) ;
#168 = EDGE_CURVE ( 'NONE', #48, #176, #126, .T. ) ;
#169 = ORIENTED_EDGE ( 'NONE', *, *, #172, .T. ) ;
#170 = ORIENTED_EDGE ( 'NONE', *, *, #92, .T. ) ;
#171 = FACE_OUTER_BOUND ( 'NONE', #254, .T. ) ;
#172 = EDGE_CURVE ( 'NONE', #192, #18, #138, .T. ) ;
#173 = CARTESIAN_POINT ( 'NONE',  ( 2.000000000000000000, 2.449293598294706414E-16, 2.000000000000000000 ) ) ;
#174 = DESIGN_CONTEXT ( 'detailed design', #112, 'design' ) ;
#175 = CIRCLE ( 'NONE', #166, 2.000000000000000000 ) ;
#176 = VERTEX_POINT ( 'NONE', #244 ) ;
#177 = ADVANCED_FACE ( 'NONE', ( #41 ), #7, .T. ) ;
#178 = CYLINDRICAL_SURFACE ( 'NONE', #13, 1.000000000000000000 ) ;
#179 = CARTESIAN_POINT ( 'NONE',  ( 2.000000000000000000, 2.449293598294706414E-16, 0.000000000000000000 ) ) ;
#180 =( NAMED_UNIT ( * ) SI_UNIT ( $, .STERADIAN. ) SOLID_ANGLE_UNIT ( ) );
#181 = LINE ( 'NONE', #201, #116 ) ;
#182 = CC_DESIGN_PERSON_AND_ORGANIZATION_ASSIGNMENT ( #246, #104, ( #114 ) ) ;
#183 =( LENGTH_UNIT ( ) NAMED_UNIT ( * ) SI_UNIT ( .MILLI., .METRE. ) );
#184 = PERSON_AND_ORGANIZATION ( #1, #39 ) ;
#185 = APPROVAL_PERSON_ORGANIZATION ( #184, #36, #160 ) ;
#186 = DIRECTION ( 'NONE',  ( 0.000000000000000000, 0.000000000000000000, 1.000000000000000000 ) ) ;
#187 = PERSON_AND_ORGANIZATION ( #1, #39 ) ;
#188 = AXIS2_PLACEMENT_3D ( 'NONE', #223, #98, #21 ) ;
#189 = EDGE_CURVE ( 'NONE', #110, #67, #210, .T. ) ;
#190 = SECURITY_CLASSIFICATION_LEVEL ( 'unclassified' ) ;
#191 = VERTEX_POINT ( 'NONE', #179 ) ;
#192 = VERTEX_POINT ( 'NONE', #59 ) ;
#193 = APPROVAL_PERSON_ORGANIZATION ( #142, #6, #213 ) ;
#194 = LINE ( 'NONE', #3, #237 ) ;
#195 = EDGE_CURVE ( 'NONE', #176, #48, #238, .T. ) ;
#196 = UNCERTAINTY_MEASURE_WITH_UNIT (LENGTH_MEASURE( 1.000000000000000082E-05 ), #183, 'distance_accuracy_value', 'NONE');
#197 = ORIENTED_EDGE ( 'NONE', *, *, #195, .T. ) ;
#198 = CARTESIAN_POINT ( 'NONE',  ( 0.000000000000000000, 0.000000000000000000, 0.000000000000000000 ) ) ;
#199 = AXIS2_PLACEMENT_3D ( 'NONE', #155, #139, #243 ) ;
#200 = LOCAL_TIME ( 9, 17, 48.00000000000000000, #250 ) ;
#201 = CARTESIAN_POINT ( 'NONE',  ( 1.000000000000000000, 1.224646799147353207E-16, 95.40000000000000568 ) ) ;
#202 = ADVANCED_BREP_SHAPE_REPRESENTATION ( 'c1a0', ( #96, #20 ), #127 ) ;
#203 = DIRECTION ( 'NONE',  ( -1.000000000000000000, 0.000000000000000000, 0.000000000000000000 ) ) ;
#204 = FACE_OUTER_BOUND ( 'NONE', #90, .T. ) ;
#205 = DIRECTION ( 'NONE',  ( 1.000000000000000000, 0.000000000000000000, -0.000000000000000000 ) ) ;
#206 = CARTESIAN_POINT ( 'NONE',  ( -2.000000000000000000, 0.000000000000000000, 2.000000000000000000 ) ) ;
#207 = DATE_AND_TIME ( #145, #217 ) ;
#208 = VECTOR ( 'NONE', #34, 1000.000000000000000 ) ;
#209 = DATE_AND_TIME ( #11, #200 ) ;
#210 = CIRCLE ( 'NONE', #23, 2.000000000000000000 ) ;
#211 = DATE_AND_TIME ( #31, #99 ) ;
#212 = EDGE_LOOP ( 'NONE', ( #54, #128 ) ) ;
#213 = APPROVAL_ROLE ( '' ) ;
#214 = ORIENTED_EDGE ( 'NONE', *, *, #51, .T. ) ;
#215 = ADVANCED_FACE ( 'NONE', ( #204 ), #78, .T. ) ;
#216 = LINE ( 'NONE', #236, #208 ) ;
#217 = LOCAL_TIME ( 9, 17, 48.00000000000000000, #120 ) ;
#218 = ORIENTED_EDGE ( 'NONE', *, *, #172, .F. ) ;
#219 = ORIENTED_EDGE ( 'NONE', *, *, #220, .F. ) ;
#220 = EDGE_CURVE ( 'NONE', #191, #76, #69, .T. ) ;
#221 = DIRECTION ( 'NONE',  ( 0.000000000000000000, 0.000000000000000000, 1.000000000000000000 ) ) ;
#222 = AXIS2_PLACEMENT_3D ( 'NONE', #2, #132, #37 ) ;
#223 = CARTESIAN_POINT ( 'NONE',  ( 0.000000000000000000, 0.000000000000000000, 2.000000000000000000 ) ) ;
#224 = EDGE_CURVE ( 'NONE', #110, #76, #242, .T. ) ;
#225 = CARTESIAN_POINT ( 'NONE',  ( 0.000000000000000000, 0.000000000000000000, 2.000000000000000000 ) ) ;
#226 = CARTESIAN_POINT ( 'NONE',  ( 0.000000000000000000, 0.000000000000000000, 0.000000000000000000 ) ) ;
#227 = AXIS2_PLACEMENT_3D ( 'NONE', #4, #64, #82 ) ;
#228 = APPROVAL_STATUS ( 'not_yet_approved' ) ;
#229 = COORDINATED_UNIVERSAL_TIME_OFFSET ( 1, 0, .AHEAD. ) ;
#230 = SECURITY_CLASSIFICATION ( '', '', #190 ) ;
#231 = DATE_AND_TIME ( #45, #148 ) ;
#232 = CC_DESIGN_DATE_AND_TIME_ASSIGNMENT ( #68, #70, ( #247 ) ) ;
#233 = LOCAL_TIME ( 9, 17, 48.00000000000000000, #229 ) ;
#234 = CARTESIAN_POINT ( 'NONE',  ( 0.000000000000000000, 0.000000000000000000, 2.000000000000000000 ) ) ;
#235 = ORIENTED_EDGE ( 'NONE', *, *, #162, .F. ) ;
#236 = CARTESIAN_POINT ( 'NONE',  ( -1.000000000000000000, 0.000000000000000000, 95.40000000000000568 ) ) ;
#237 = VECTOR ( 'NONE', #35, 1000.000000000000000 ) ;
#238 = CIRCLE ( 'NONE', #32, 1.000000000000000000 ) ;
#239 = EDGE_CURVE ( 'NONE', #67, #110, #175, .T. ) ;
#240 = ORIENTED_EDGE ( 'NONE', *, *, #224, .F. ) ;
#241 = DIRECTION ( 'NONE',  ( 1.000000000000000000, 0.000000000000000000, -0.000000000000000000 ) ) ;
#242 = LINE ( 'NONE', #206, #47 ) ;
#243 = DIRECTION ( 'NONE',  ( -1.000000000000000000, 0.000000000000000000, 0.000000000000000000 ) ) ;
#244 = CARTESIAN_POINT ( 'NONE',  ( 1.000000000000000000, 1.224646799147353207E-16, 2.000000000000000000 ) ) ;
#245 = DIRECTION ( 'NONE',  ( -0.000000000000000000, -0.000000000000000000, -1.000000000000000000 ) ) ;
#246 = PERSON_AND_ORGANIZATION ( #1, #39 ) ;
#247 = PRODUCT_DEFINITION ( 'NEZNÁMÝ', '', #114, #174 ) ;
#248 = APPLICATION_PROTOCOL_DEFINITION ( 'international standard', 'config_control_design', 1994, #112 ) ;
#249 = APPROVAL_ROLE ( '' ) ;
#250 = COORDINATED_UNIVERSAL_TIME_OFFSET ( 1, 0, .AHEAD. ) ;
#251 = AXIS2_PLACEMENT_3D ( 'NONE', #198, #19, #115 ) ;
#252 = ORIENTED_EDGE ( 'NONE', *, *, #168, .T. ) ;
#253 = CC_DESIGN_APPROVAL ( #36, ( #230 ) ) ;
#254 = EDGE_LOOP ( 'NONE', ( #58, #107 ) ) ;
#255 = PLANE ( 'NONE',  #156 ) ;
ENDSEC;
END-ISO-10303-21;
