ISO-10303-21;
HEADER;
FILE_DESCRIPTION (( 'STEP AP203' ),
    '1' );
FILE_NAME ('9f62.STEP',
    '2023-02-13T16:26:30',
    ( '' ),
    ( '' ),
    'SwSTEP 2.0',
    'SolidWorks 2019',
    '' );
FILE_SCHEMA (( 'CONFIG_CONTROL_DESIGN' ));
ENDSEC;

DATA;
#1 = FACE_BOUND ( 'NONE', #254, .T. ) ;
#2 = APPROVAL_PERSON_ORGANIZATION ( #146, #216, #108 ) ;
#3 = ORIENTED_EDGE ( 'NONE', *, *, #151, .F. ) ;
#4 = PERSON_AND_ORGANIZATION ( #136, #124 ) ;
#5 = PERSON_AND_ORGANIZATION ( #136, #124 ) ;
#6 = DIRECTION ( 'NONE',  ( 1.000000000000000000, 0.000000000000000000, 0.000000000000000000 ) ) ;
#7 = CARTESIAN_POINT ( 'NONE',  ( 3.000000000000000444, 3.673940397442060361E-16, 3.000000000000000000 ) ) ;
#8 = DIRECTION ( 'NONE',  ( -1.000000000000000000, 0.000000000000000000, 0.000000000000000000 ) ) ;
#9 = EDGE_LOOP ( 'NONE', ( #250, #154 ) ) ;
#10 = CC_DESIGN_DATE_AND_TIME_ASSIGNMENT ( #98, #120, ( #141 ) ) ;
#11 = CARTESIAN_POINT ( 'NONE',  ( -1.500000000000000222, 0.000000000000000000, 400.0000000000000000 ) ) ;
#12 = AXIS2_PLACEMENT_3D ( 'NONE', #204, #227, #162 ) ;
#13 = PRODUCT_DEFINITION_FORMATION_WITH_SPECIFIED_SOURCE ( 'LIBOVOLNÝ', '', #253, .NOT_KNOWN. ) ;
#14 = ORIENTED_EDGE ( 'NONE', *, *, #118, .T. ) ;
#15 = CARTESIAN_POINT ( 'NONE',  ( 0.000000000000000000, 0.000000000000000000, 0.000000000000000000 ) ) ;
#16 = AXIS2_PLACEMENT_3D ( 'NONE', #109, #165, #68 ) ;
#17 = EDGE_CURVE ( 'NONE', #76, #66, #18, .T. ) ;
#18 = LINE ( 'NONE', #234, #211 ) ;
#19 = ORIENTED_EDGE ( 'NONE', *, *, #99, .T. ) ;
#20 = FACE_OUTER_BOUND ( 'NONE', #9, .T. ) ;
#21 = DATE_AND_TIME ( #42, #57 ) ;
#22 = APPROVAL ( #184, 'NEURÈENÝ' ) ;
#23 = CARTESIAN_POINT ( 'NONE',  ( 3.000000000000000444, 3.673940397442060361E-16, 3.000000000000000000 ) ) ;
#24 = EDGE_LOOP ( 'NONE', ( #126, #226 ) ) ;
#25 = DIRECTION ( 'NONE',  ( 1.000000000000000000, 0.000000000000000000, 0.000000000000000000 ) ) ;
#26 = DIRECTION ( 'NONE',  ( 1.000000000000000000, 0.000000000000000000, -0.000000000000000000 ) ) ;
#27 = DIRECTION ( 'NONE',  ( 1.000000000000000000, 0.000000000000000000, 0.000000000000000000 ) ) ;
#28 = ADVANCED_FACE ( 'NONE', ( #61 ), #81, .T. ) ;
#29 =( LENGTH_UNIT ( ) NAMED_UNIT ( * ) SI_UNIT ( .MILLI., .METRE. ) );
#30 = LOCAL_TIME ( 17, 26, 30.00000000000000000, #73 ) ;
#31 = ADVANCED_FACE ( 'NONE', ( #1, #104 ), #235, .T. ) ;
#32 =( NAMED_UNIT ( * ) PLANE_ANGLE_UNIT ( ) SI_UNIT ( $, .RADIAN. ) );
#33 = DESIGN_CONTEXT ( 'detailed design', #218, 'design' ) ;
#34 = CC_DESIGN_PERSON_AND_ORGANIZATION_ASSIGNMENT ( #5, #37, ( #13 ) ) ;
#35 = CC_DESIGN_SECURITY_CLASSIFICATION ( #141, ( #13 ) ) ;
#36 = VERTEX_POINT ( 'NONE', #139 ) ;
#37 = PERSON_AND_ORGANIZATION_ROLE ( 'creator' ) ;
#38 = VERTEX_POINT ( 'NONE', #84 ) ;
#39 = AXIS2_PLACEMENT_3D ( 'NONE', #179, #237, #41 ) ;
#40 = EDGE_LOOP ( 'NONE', ( #244, #135, #192, #130 ) ) ;
#41 = DIRECTION ( 'NONE',  ( 1.000000000000000000, 0.000000000000000000, 0.000000000000000000 ) ) ;
#42 = CALENDAR_DATE ( 2023, 13, 2 ) ;
#43 = EDGE_CURVE ( 'NONE', #119, #36, #117, .T. ) ;
#44 = PERSON_AND_ORGANIZATION_ROLE ( 'creator' ) ;
#45 = CARTESIAN_POINT ( 'NONE',  ( 0.000000000000000000, 0.000000000000000000, 400.0000000000000000 ) ) ;
#46 = CARTESIAN_POINT ( 'NONE',  ( 3.000000000000000444, 3.673940397442060361E-16, 0.000000000000000000 ) ) ;
#47 = CARTESIAN_POINT ( 'NONE',  ( 0.000000000000000000, 0.000000000000000000, 3.000000000000000000 ) ) ;
#48 = DIRECTION ( 'NONE',  ( 0.000000000000000000, 0.000000000000000000, 1.000000000000000000 ) ) ;
#49 = ORIENTED_EDGE ( 'NONE', *, *, #246, .T. ) ;
#50 = VECTOR ( 'NONE', #113, 1000.000000000000000 ) ;
#51 = COORDINATED_UNIVERSAL_TIME_OFFSET ( 1, 0, .AHEAD. ) ;
#52 = CALENDAR_DATE ( 2023, 13, 2 ) ;
#53 = CC_DESIGN_PERSON_AND_ORGANIZATION_ASSIGNMENT ( #223, #44, ( #157 ) ) ;
#54 = PERSON_AND_ORGANIZATION ( #136, #124 ) ;
#55 = AXIS2_PLACEMENT_3D ( 'NONE', #228, #145, #242 ) ;
#56 = PERSON_AND_ORGANIZATION_ROLE ( 'design_owner' ) ;
#57 = LOCAL_TIME ( 17, 26, 30.00000000000000000, #215 ) ;
#58 = AXIS2_PLACEMENT_3D ( 'NONE', #64, #92, #25 ) ;
#59 = ORIENTED_EDGE ( 'NONE', *, *, #96, .T. ) ;
#60 = PRODUCT_RELATED_PRODUCT_CATEGORY ( 'detail', '', ( #253 ) ) ;
#61 = FACE_OUTER_BOUND ( 'NONE', #40, .T. ) ;
#62 = EDGE_LOOP ( 'NONE', ( #137, #19 ) ) ;
#63 = CIRCLE ( 'NONE', #222, 1.500000000000000222 ) ;
#64 = CARTESIAN_POINT ( 'NONE',  ( 0.000000000000000000, 0.000000000000000000, 0.000000000000000000 ) ) ;
#65 = CARTESIAN_POINT ( 'NONE',  ( -1.500000000000000222, 0.000000000000000000, 400.0000000000000000 ) ) ;
#66 = VERTEX_POINT ( 'NONE', #121 ) ;
#67 = LINE ( 'NONE', #65, #233 ) ;
#68 = DIRECTION ( 'NONE',  ( 1.000000000000000000, 0.000000000000000000, 0.000000000000000000 ) ) ;
#69 = AXIS2_PLACEMENT_3D ( 'NONE', #220, #86, #239 ) ;
#70 = DIRECTION ( 'NONE',  ( -1.000000000000000000, 0.000000000000000000, 0.000000000000000000 ) ) ;
#71 = ORIENTED_EDGE ( 'NONE', *, *, #195, .T. ) ;
#72 = ADVANCED_FACE ( 'NONE', ( #20 ), #105, .T. ) ;
#73 = COORDINATED_UNIVERSAL_TIME_OFFSET ( 1, 0, .AHEAD. ) ;
#74 = MECHANICAL_CONTEXT ( 'NONE', #199, 'mechanical' ) ;
#75 =( NAMED_UNIT ( * ) SI_UNIT ( $, .STERADIAN. ) SOLID_ANGLE_UNIT ( ) );
#76 = VERTEX_POINT ( 'NONE', #129 ) ;
#77 = DIRECTION ( 'NONE',  ( 1.000000000000000000, 0.000000000000000000, 0.000000000000000000 ) ) ;
#78 = EDGE_CURVE ( 'NONE', #76, #207, #245, .T. ) ;
#79 = VECTOR ( 'NONE', #243, 1000.000000000000000 ) ;
#80 = UNCERTAINTY_MEASURE_WITH_UNIT (LENGTH_MEASURE( 1.000000000000000082E-05 ), #29, 'distance_accuracy_value', 'NONE');
#81 = CYLINDRICAL_SURFACE ( 'NONE', #147, 3.000000000000000444 ) ;
#82 = DIRECTION ( 'NONE',  ( -0.000000000000000000, -0.000000000000000000, -1.000000000000000000 ) ) ;
#83 = APPROVAL_ROLE ( '' ) ;
#84 = CARTESIAN_POINT ( 'NONE',  ( -1.500000000000000222, 0.000000000000000000, 3.000000000000000000 ) ) ;
#85 = AXIS2_PLACEMENT_3D ( 'NONE', #15, #172, #77 ) ;
#86 = DIRECTION ( 'NONE',  ( 0.000000000000000000, 0.000000000000000000, 1.000000000000000000 ) ) ;
#87 = CALENDAR_DATE ( 2023, 13, 2 ) ;
#88 = DIRECTION ( 'NONE',  ( -0.000000000000000000, -0.000000000000000000, -1.000000000000000000 ) ) ;
#89 = PERSON_AND_ORGANIZATION_ROLE ( 'design_supplier' ) ;
#90 = CARTESIAN_POINT ( 'NONE',  ( 1.500000000000000222, 1.836970198721030181E-16, 3.000000000000000000 ) ) ;
#91 = PRODUCT_DEFINITION_SHAPE ( 'NONE', 'NONE',  #157 ) ;
#92 = DIRECTION ( 'NONE',  ( 0.000000000000000000, 0.000000000000000000, 1.000000000000000000 ) ) ;
#93 = CARTESIAN_POINT ( 'NONE',  ( 0.000000000000000000, 0.000000000000000000, 400.0000000000000000 ) ) ;
#94 = ORIENTED_EDGE ( 'NONE', *, *, #195, .F. ) ;
#95 = PLANE ( 'NONE',  #217 ) ;
#96 = EDGE_CURVE ( 'NONE', #119, #38, #67, .T. ) ;
#97 = ORIENTED_EDGE ( 'NONE', *, *, #208, .T. ) ;
#98 = DATE_AND_TIME ( #193, #214 ) ;
#99 = EDGE_CURVE ( 'NONE', #207, #76, #123, .T. ) ;
#100 = CALENDAR_DATE ( 2023, 13, 2 ) ;
#101 = CC_DESIGN_APPROVAL ( #216, ( #157 ) ) ;
#102 = DATE_AND_TIME ( #52, #30 ) ;
#103 = ORIENTED_EDGE ( 'NONE', *, *, #17, .F. ) ;
#104 = FACE_OUTER_BOUND ( 'NONE', #62, .T. ) ;
#105 = PLANE ( 'NONE',  #212 ) ;
#106 = CC_DESIGN_APPROVAL ( #22, ( #13 ) ) ;
#107 = VERTEX_POINT ( 'NONE', #46 ) ;
#108 = APPROVAL_ROLE ( '' ) ;
#109 = CARTESIAN_POINT ( 'NONE',  ( 0.000000000000000000, 0.000000000000000000, 0.000000000000000000 ) ) ;
#110 = CC_DESIGN_PERSON_AND_ORGANIZATION_ASSIGNMENT ( #54, #56, ( #253 ) ) ;
#111 = AXIS2_PLACEMENT_3D ( 'NONE', #128, #88, #201 ) ;
#112 = LINE ( 'NONE', #7, #79 ) ;
#113 = DIRECTION ( 'NONE',  ( -0.000000000000000000, -0.000000000000000000, -1.000000000000000000 ) ) ;
#114 = CARTESIAN_POINT ( 'NONE',  ( 0.000000000000000000, 0.000000000000000000, 400.0000000000000000 ) ) ;
#115 = EDGE_LOOP ( 'NONE', ( #94, #149, #59, #49 ) ) ;
#116 = ORIENTED_EDGE ( 'NONE', *, *, #118, .F. ) ;
#117 = CIRCLE ( 'NONE', #39, 1.500000000000000222 ) ;
#118 = EDGE_CURVE ( 'NONE', #205, #38, #63, .T. ) ;
#119 = VERTEX_POINT ( 'NONE', #11 ) ;
#120 = DATE_TIME_ROLE ( 'classification_date' ) ;
#121 = CARTESIAN_POINT ( 'NONE',  ( -3.000000000000000444, 0.000000000000000000, 0.000000000000000000 ) ) ;
#122 = DATE_AND_TIME ( #100, #148 ) ;
#123 = CIRCLE ( 'NONE', #12, 3.000000000000000444 ) ;
#124 = ORGANIZATION ( 'NEURÈENÝ', 'NEURÈENÝ', '' ) ;
#125 = PERSON_AND_ORGANIZATION ( #136, #124 ) ;
#126 = ORIENTED_EDGE ( 'NONE', *, *, #238, .F. ) ;
#127 = CC_DESIGN_PERSON_AND_ORGANIZATION_ASSIGNMENT ( #232, #255, ( #141 ) ) ;
#128 = CARTESIAN_POINT ( 'NONE',  ( 0.000000000000000000, 0.000000000000000000, 3.000000000000000000 ) ) ;
#129 = CARTESIAN_POINT ( 'NONE',  ( -3.000000000000000444, 0.000000000000000000, 3.000000000000000000 ) ) ;
#130 = ORIENTED_EDGE ( 'NONE', *, *, #238, .T. ) ;
#131 = CARTESIAN_POINT ( 'NONE',  ( 0.000000000000000000, 0.000000000000000000, 3.000000000000000000 ) ) ;
#132 = APPROVAL ( #134, 'NEURÈENÝ' ) ;
#133 = DIRECTION ( 'NONE',  ( 1.000000000000000000, 0.000000000000000000, -0.000000000000000000 ) ) ;
#134 = APPROVAL_STATUS ( 'not_yet_approved' ) ;
#135 = ORIENTED_EDGE ( 'NONE', *, *, #78, .F. ) ;
#136 = PERSON ( 'NEURÈENÝ', 'NEURÈENÝ', 'NEURÈENÝ', ('NEURÈENÝ'), ('NEURÈENÝ'), ('NEURÈENÝ') ) ;
#137 = ORIENTED_EDGE ( 'NONE', *, *, #78, .T. ) ;
#138 = COORDINATED_UNIVERSAL_TIME_OFFSET ( 1, 0, .AHEAD. ) ;
#139 = CARTESIAN_POINT ( 'NONE',  ( 1.500000000000000222, 1.836970198721030181E-16, 400.0000000000000000 ) ) ;
#140 = DIRECTION ( 'NONE',  ( 0.000000000000000000, 0.000000000000000000, 1.000000000000000000 ) ) ;
#141 = SECURITY_CLASSIFICATION ( '', '', #249 ) ;
#142 = CYLINDRICAL_SURFACE ( 'NONE', #111, 3.000000000000000444 ) ;
#143 = DIRECTION ( 'NONE',  ( -0.000000000000000000, -0.000000000000000000, -1.000000000000000000 ) ) ;
#144 = LINE ( 'NONE', #203, #50 ) ;
#145 = DIRECTION ( 'NONE',  ( 0.000000000000000000, 0.000000000000000000, 1.000000000000000000 ) ) ;
#146 = PERSON_AND_ORGANIZATION ( #136, #124 ) ;
#147 = AXIS2_PLACEMENT_3D ( 'NONE', #155, #82, #156 ) ;
#148 = LOCAL_TIME ( 17, 26, 30.00000000000000000, #138 ) ;
#149 = ORIENTED_EDGE ( 'NONE', *, *, #43, .F. ) ;
#150 = APPLICATION_PROTOCOL_DEFINITION ( 'international standard', 'config_control_design', 1994, #199 ) ;
#151 = EDGE_CURVE ( 'NONE', #36, #119, #209, .T. ) ;
#152 = DATE_AND_TIME ( #87, #196 ) ;
#153 = APPROVAL_PERSON_ORGANIZATION ( #125, #22, #221 ) ;
#154 = ORIENTED_EDGE ( 'NONE', *, *, #151, .T. ) ;
#155 = CARTESIAN_POINT ( 'NONE',  ( 0.000000000000000000, 0.000000000000000000, 3.000000000000000000 ) ) ;
#156 = DIRECTION ( 'NONE',  ( -1.000000000000000000, 0.000000000000000000, 0.000000000000000000 ) ) ;
#157 = PRODUCT_DEFINITION ( 'NEZNÁMÝ', '', #13, #33 ) ;
#158 = CIRCLE ( 'NONE', #229, 1.500000000000000222 ) ;
#159 = DIRECTION ( 'NONE',  ( 0.000000000000000000, 0.000000000000000000, 1.000000000000000000 ) ) ;
#160 = COORDINATED_UNIVERSAL_TIME_OFFSET ( 1, 0, .AHEAD. ) ;
#161 = CC_DESIGN_DATE_AND_TIME_ASSIGNMENT ( #122, #198, ( #157 ) ) ;
#162 = DIRECTION ( 'NONE',  ( 1.000000000000000000, 0.000000000000000000, 0.000000000000000000 ) ) ;
#163 = AXIS2_PLACEMENT_3D ( 'NONE', #45, #140, #188 ) ;
#164 = FACE_OUTER_BOUND ( 'NONE', #115, .T. ) ;
#165 = DIRECTION ( 'NONE',  ( 0.000000000000000000, 0.000000000000000000, 1.000000000000000000 ) ) ;
#166 = ADVANCED_FACE ( 'NONE', ( #240 ), #142, .T. ) ;
#167 = DIRECTION ( 'NONE',  ( -0.000000000000000000, -0.000000000000000000, -1.000000000000000000 ) ) ;
#168 = CIRCLE ( 'NONE', #58, 3.000000000000000444 ) ;
#169 = ORIENTED_EDGE ( 'NONE', *, *, #246, .F. ) ;
#170 = CC_DESIGN_PERSON_AND_ORGANIZATION_ASSIGNMENT ( #4, #89, ( #13 ) ) ;
#171 = PERSON_AND_ORGANIZATION ( #136, #124 ) ;
#172 = DIRECTION ( 'NONE',  ( 0.000000000000000000, 0.000000000000000000, 1.000000000000000000 ) ) ;
#173 = APPROVAL_DATE_TIME ( #102, #132 ) ;
#174 = ADVANCED_FACE ( 'NONE', ( #230 ), #95, .F. ) ;
#175 = ORIENTED_EDGE ( 'NONE', *, *, #197, .T. ) ;
#176 = APPROVAL_DATE_TIME ( #152, #216 ) ;
#177 = CC_DESIGN_APPROVAL ( #132, ( #141 ) ) ;
#178 = DIRECTION ( 'NONE',  ( -0.000000000000000000, -0.000000000000000000, -1.000000000000000000 ) ) ;
#179 = CARTESIAN_POINT ( 'NONE',  ( 0.000000000000000000, 0.000000000000000000, 400.0000000000000000 ) ) ;
#180 = CLOSED_SHELL ( 'NONE', ( #251, #166, #28, #31, #174, #219, #72 ) ) ;
#181 = CARTESIAN_POINT ( 'NONE',  ( 0.000000000000000000, 0.000000000000000000, 400.0000000000000000 ) ) ;
#182 = APPROVAL_DATE_TIME ( #21, #22 ) ;
#183 = DIRECTION ( 'NONE',  ( 0.000000000000000000, 0.000000000000000000, 1.000000000000000000 ) ) ;
#184 = APPROVAL_STATUS ( 'not_yet_approved' ) ;
#185 = CYLINDRICAL_SURFACE ( 'NONE', #200, 1.500000000000000222 ) ;
#186 = ORIENTED_EDGE ( 'NONE', *, *, #96, .F. ) ;
#187 = ADVANCED_BREP_SHAPE_REPRESENTATION ( '9f62', ( #210, #85 ), #252 ) ;
#188 = DIRECTION ( 'NONE',  ( 1.000000000000000000, 0.000000000000000000, 0.000000000000000000 ) ) ;
#189 = CYLINDRICAL_SURFACE ( 'NONE', #241, 1.500000000000000222 ) ;
#190 = DIRECTION ( 'NONE',  ( -0.000000000000000000, -0.000000000000000000, -1.000000000000000000 ) ) ;
#191 = CIRCLE ( 'NONE', #16, 3.000000000000000444 ) ;
#192 = ORIENTED_EDGE ( 'NONE', *, *, #17, .T. ) ;
#193 = CALENDAR_DATE ( 2023, 13, 2 ) ;
#194 = EDGE_LOOP ( 'NONE', ( #248, #97, #175, #103 ) ) ;
#195 = EDGE_CURVE ( 'NONE', #36, #205, #144, .T. ) ;
#196 = LOCAL_TIME ( 17, 26, 30.00000000000000000, #160 ) ;
#197 = EDGE_CURVE ( 'NONE', #107, #66, #168, .T. ) ;
#198 = DATE_TIME_ROLE ( 'creation_date' ) ;
#199 = APPLICATION_CONTEXT ( 'configuration controlled 3d designs of mechanical parts and assemblies' ) ;
#200 = AXIS2_PLACEMENT_3D ( 'NONE', #114, #190, #70 ) ;
#201 = DIRECTION ( 'NONE',  ( -1.000000000000000000, 0.000000000000000000, 0.000000000000000000 ) ) ;
#202 = EDGE_LOOP ( 'NONE', ( #3, #71, #14, #186 ) ) ;
#203 = CARTESIAN_POINT ( 'NONE',  ( 1.500000000000000222, 1.836970198721030181E-16, 400.0000000000000000 ) ) ;
#204 = CARTESIAN_POINT ( 'NONE',  ( 0.000000000000000000, 0.000000000000000000, 3.000000000000000000 ) ) ;
#205 = VERTEX_POINT ( 'NONE', #90 ) ;
#206 = DIRECTION ( 'NONE',  ( 0.000000000000000000, 0.000000000000000000, 1.000000000000000000 ) ) ;
#207 = VERTEX_POINT ( 'NONE', #23 ) ;
#208 = EDGE_CURVE ( 'NONE', #207, #107, #112, .T. ) ;
#209 = CIRCLE ( 'NONE', #163, 1.500000000000000222 ) ;
#210 = MANIFOLD_SOLID_BREP ( 'Pøidat vysunutím3', #180 ) ;
#211 = VECTOR ( 'NONE', #178, 1000.000000000000000 ) ;
#212 = AXIS2_PLACEMENT_3D ( 'NONE', #181, #159, #133 ) ;
#213 = APPROVAL_STATUS ( 'not_yet_approved' ) ;
#214 = LOCAL_TIME ( 17, 26, 30.00000000000000000, #51 ) ;
#215 = COORDINATED_UNIVERSAL_TIME_OFFSET ( 1, 0, .AHEAD. ) ;
#216 = APPROVAL ( #213, 'NEURÈENÝ' ) ;
#217 = AXIS2_PLACEMENT_3D ( 'NONE', #225, #183, #26 ) ;
#218 = APPLICATION_CONTEXT ( 'configuration controlled 3d designs of mechanical parts and assemblies' ) ;
#219 = ADVANCED_FACE ( 'NONE', ( #164 ), #189, .T. ) ;
#220 = CARTESIAN_POINT ( 'NONE',  ( 0.000000000000000000, 0.000000000000000000, 3.000000000000000000 ) ) ;
#221 = APPROVAL_ROLE ( '' ) ;
#222 = AXIS2_PLACEMENT_3D ( 'NONE', #47, #48, #6 ) ;
#223 = PERSON_AND_ORGANIZATION ( #136, #124 ) ;
#224 = APPROVAL_PERSON_ORGANIZATION ( #171, #132, #83 ) ;
#225 = CARTESIAN_POINT ( 'NONE',  ( 0.000000000000000000, 0.000000000000000000, 0.000000000000000000 ) ) ;
#226 = ORIENTED_EDGE ( 'NONE', *, *, #197, .F. ) ;
#227 = DIRECTION ( 'NONE',  ( 0.000000000000000000, 0.000000000000000000, 1.000000000000000000 ) ) ;
#228 = CARTESIAN_POINT ( 'NONE',  ( 0.000000000000000000, 0.000000000000000000, 3.000000000000000000 ) ) ;
#229 = AXIS2_PLACEMENT_3D ( 'NONE', #131, #206, #27 ) ;
#230 = FACE_OUTER_BOUND ( 'NONE', #24, .T. ) ;
#231 = APPLICATION_PROTOCOL_DEFINITION ( 'international standard', 'config_control_design', 1994, #218 ) ;
#232 = PERSON_AND_ORGANIZATION ( #136, #124 ) ;
#233 = VECTOR ( 'NONE', #143, 1000.000000000000000 ) ;
#234 = CARTESIAN_POINT ( 'NONE',  ( -3.000000000000000444, 0.000000000000000000, 3.000000000000000000 ) ) ;
#235 = PLANE ( 'NONE',  #69 ) ;
#236 = SHAPE_DEFINITION_REPRESENTATION ( #91, #187 ) ;
#237 = DIRECTION ( 'NONE',  ( 0.000000000000000000, 0.000000000000000000, 1.000000000000000000 ) ) ;
#238 = EDGE_CURVE ( 'NONE', #66, #107, #191, .T. ) ;
#239 = DIRECTION ( 'NONE',  ( 1.000000000000000000, 0.000000000000000000, -0.000000000000000000 ) ) ;
#240 = FACE_OUTER_BOUND ( 'NONE', #194, .T. ) ;
#241 = AXIS2_PLACEMENT_3D ( 'NONE', #93, #167, #8 ) ;
#242 = DIRECTION ( 'NONE',  ( 1.000000000000000000, 0.000000000000000000, 0.000000000000000000 ) ) ;
#243 = DIRECTION ( 'NONE',  ( -0.000000000000000000, -0.000000000000000000, -1.000000000000000000 ) ) ;
#244 = ORIENTED_EDGE ( 'NONE', *, *, #208, .F. ) ;
#245 = CIRCLE ( 'NONE', #55, 3.000000000000000444 ) ;
#246 = EDGE_CURVE ( 'NONE', #38, #205, #158, .T. ) ;
#247 = FACE_OUTER_BOUND ( 'NONE', #202, .T. ) ;
#248 = ORIENTED_EDGE ( 'NONE', *, *, #99, .F. ) ;
#249 = SECURITY_CLASSIFICATION_LEVEL ( 'unclassified' ) ;
#250 = ORIENTED_EDGE ( 'NONE', *, *, #43, .T. ) ;
#251 = ADVANCED_FACE ( 'NONE', ( #247 ), #185, .T. ) ;
#252 =( GEOMETRIC_REPRESENTATION_CONTEXT ( 3 ) GLOBAL_UNCERTAINTY_ASSIGNED_CONTEXT ( ( #80 ) ) GLOBAL_UNIT_ASSIGNED_CONTEXT ( ( #29, #32, #75 ) ) REPRESENTATION_CONTEXT ( 'NONE', 'WORKASPACE' ) );
#253 = PRODUCT ( '9f62', '9f62', '', ( #74 ) ) ;
#254 = EDGE_LOOP ( 'NONE', ( #169, #116 ) ) ;
#255 = PERSON_AND_ORGANIZATION_ROLE ( 'classification_officer' ) ;
ENDSEC;
END-ISO-10303-21;
