ISO-10303-21;
HEADER;
FILE_DESCRIPTION (( 'STEP AP203' ),
    '1' );
FILE_NAME ('454f.STEP',
    '2023-02-13T16:25:36',
    ( '' ),
    ( '' ),
    'SwSTEP 2.0',
    'SolidWorks 2019',
    '' );
FILE_SCHEMA (( 'CONFIG_CONTROL_DESIGN' ));
ENDSEC;

DATA;
#1 = APPROVAL_ROLE ( '' ) ;
#2 = CIRCLE ( 'NONE', #85, 3.000000000000000444 ) ;
#3 = APPLICATION_CONTEXT ( 'configuration controlled 3d designs of mechanical parts and assemblies' ) ;
#4 = DIRECTION ( 'NONE',  ( 0.000000000000000000, 0.000000000000000000, 1.000000000000000000 ) ) ;
#5 = DIRECTION ( 'NONE',  ( -1.000000000000000000, 0.000000000000000000, 0.000000000000000000 ) ) ;
#6 = PERSON_AND_ORGANIZATION ( #9, #16 ) ;
#7 = PRODUCT_DEFINITION_FORMATION_WITH_SPECIFIED_SOURCE ( 'LIBOVOLNÝ', '', #54, .NOT_KNOWN. ) ;
#8 = CC_DESIGN_PERSON_AND_ORGANIZATION_ASSIGNMENT ( #167, #12, ( #54 ) ) ;
#9 = PERSON ( 'NEURÈENÝ', 'NEURÈENÝ', 'NEURÈENÝ', ('NEURÈENÝ'), ('NEURÈENÝ'), ('NEURÈENÝ') ) ;
#10 = CARTESIAN_POINT ( 'NONE',  ( 1.600000000000000089, 1.959434878635765230E-16, 3.000000000000000000 ) ) ;
#11 = APPLICATION_CONTEXT ( 'configuration controlled 3d designs of mechanical parts and assemblies' ) ;
#12 = PERSON_AND_ORGANIZATION_ROLE ( 'design_owner' ) ;
#13 = CARTESIAN_POINT ( 'NONE',  ( 0.000000000000000000, 0.000000000000000000, 3.000000000000000000 ) ) ;
#14 = ORIENTED_EDGE ( 'NONE', *, *, #201, .F. ) ;
#15 = CYLINDRICAL_SURFACE ( 'NONE', #174, 1.600000000000000089 ) ;
#16 = ORGANIZATION ( 'NEURÈENÝ', 'NEURÈENÝ', '' ) ;
#17 = FACE_OUTER_BOUND ( 'NONE', #28, .T. ) ;
#18 = CARTESIAN_POINT ( 'NONE',  ( 0.000000000000000000, 0.000000000000000000, 3.000000000000000000 ) ) ;
#19 = AXIS2_PLACEMENT_3D ( 'NONE', #18, #39, #153 ) ;
#20 = ADVANCED_FACE ( 'NONE', ( #245 ), #231, .T. ) ;
#21 = AXIS2_PLACEMENT_3D ( 'NONE', #108, #89, #132 ) ;
#22 = APPLICATION_PROTOCOL_DEFINITION ( 'international standard', 'config_control_design', 1994, #11 ) ;
#23 = APPROVAL_DATE_TIME ( #143, #209 ) ;
#24 = CARTESIAN_POINT ( 'NONE',  ( -3.000000000000000444, 0.000000000000000000, 3.000000000000000000 ) ) ;
#25 = MANIFOLD_SOLID_BREP ( 'Pøidat vysunutím3', #53 ) ;
#26 = APPROVAL_ROLE ( '' ) ;
#27 = EDGE_CURVE ( 'NONE', #71, #224, #190, .T. ) ;
#28 = EDGE_LOOP ( 'NONE', ( #122, #203 ) ) ;
#29 = ORIENTED_EDGE ( 'NONE', *, *, #35, .F. ) ;
#30 = CARTESIAN_POINT ( 'NONE',  ( 0.000000000000000000, 0.000000000000000000, 3.000000000000000000 ) ) ;
#31 = DIRECTION ( 'NONE',  ( -0.000000000000000000, -0.000000000000000000, -1.000000000000000000 ) ) ;
#32 = DIRECTION ( 'NONE',  ( -1.000000000000000000, 0.000000000000000000, 0.000000000000000000 ) ) ;
#33 = DIRECTION ( 'NONE',  ( -0.000000000000000000, -0.000000000000000000, -1.000000000000000000 ) ) ;
#34 = DIRECTION ( 'NONE',  ( -0.000000000000000000, -0.000000000000000000, -1.000000000000000000 ) ) ;
#35 = EDGE_CURVE ( 'NONE', #202, #104, #45, .T. ) ;
#36 = CARTESIAN_POINT ( 'NONE',  ( 0.000000000000000000, 0.000000000000000000, 160.0000000000000000 ) ) ;
#37 = ADVANCED_FACE ( 'NONE', ( #249 ), #15, .T. ) ;
#38 = CARTESIAN_POINT ( 'NONE',  ( -1.600000000000000089, 0.000000000000000000, 3.000000000000000000 ) ) ;
#39 = DIRECTION ( 'NONE',  ( 0.000000000000000000, 0.000000000000000000, 1.000000000000000000 ) ) ;
#40 = APPROVAL_PERSON_ORGANIZATION ( #41, #209, #1 ) ;
#41 = PERSON_AND_ORGANIZATION ( #9, #16 ) ;
#42 = DATE_TIME_ROLE ( 'classification_date' ) ;
#43 = ORIENTED_EDGE ( 'NONE', *, *, #27, .T. ) ;
#44 = ORIENTED_EDGE ( 'NONE', *, *, #252, .T. ) ;
#45 = LINE ( 'NONE', #211, #232 ) ;
#46 = DIRECTION ( 'NONE',  ( 1.000000000000000000, 0.000000000000000000, 0.000000000000000000 ) ) ;
#47 = DIRECTION ( 'NONE',  ( 0.000000000000000000, 0.000000000000000000, 1.000000000000000000 ) ) ;
#48 = DIRECTION ( 'NONE',  ( 1.000000000000000000, 0.000000000000000000, 0.000000000000000000 ) ) ;
#49 = EDGE_CURVE ( 'NONE', #186, #104, #163, .T. ) ;
#50 =( NAMED_UNIT ( * ) PLANE_ANGLE_UNIT ( ) SI_UNIT ( $, .RADIAN. ) );
#51 = CARTESIAN_POINT ( 'NONE',  ( 0.000000000000000000, 0.000000000000000000, 0.000000000000000000 ) ) ;
#52 = DIRECTION ( 'NONE',  ( 0.000000000000000000, 0.000000000000000000, 1.000000000000000000 ) ) ;
#53 = CLOSED_SHELL ( 'NONE', ( #37, #145, #187, #131, #116, #99, #20 ) ) ;
#54 = PRODUCT ( '454f', '454f', '', ( #133 ) ) ;
#55 = CC_DESIGN_DATE_AND_TIME_ASSIGNMENT ( #61, #161, ( #56 ) ) ;
#56 = PRODUCT_DEFINITION ( 'NEZNÁMÝ', '', #7, #169 ) ;
#57 = AXIS2_PLACEMENT_3D ( 'NONE', #124, #52, #208 ) ;
#58 = APPROVAL_STATUS ( 'not_yet_approved' ) ;
#59 = CARTESIAN_POINT ( 'NONE',  ( -1.600000000000000089, 0.000000000000000000, 160.0000000000000000 ) ) ;
#60 = ORIENTED_EDGE ( 'NONE', *, *, #252, .F. ) ;
#61 = DATE_AND_TIME ( #216, #177 ) ;
#62 = PERSON_AND_ORGANIZATION_ROLE ( 'design_supplier' ) ;
#63 = EDGE_LOOP ( 'NONE', ( #106, #43 ) ) ;
#64 = AXIS2_PLACEMENT_3D ( 'NONE', #67, #47, #253 ) ;
#65 = DIRECTION ( 'NONE',  ( -0.000000000000000000, -0.000000000000000000, -1.000000000000000000 ) ) ;
#66 = DATE_AND_TIME ( #165, #103 ) ;
#67 = CARTESIAN_POINT ( 'NONE',  ( 0.000000000000000000, 0.000000000000000000, 160.0000000000000000 ) ) ;
#68 = EDGE_CURVE ( 'NONE', #224, #242, #146, .T. ) ;
#69 = DIRECTION ( 'NONE',  ( 0.000000000000000000, 0.000000000000000000, 1.000000000000000000 ) ) ;
#70 = CYLINDRICAL_SURFACE ( 'NONE', #221, 1.600000000000000089 ) ;
#71 = VERTEX_POINT ( 'NONE', #233 ) ;
#72 = CC_DESIGN_PERSON_AND_ORGANIZATION_ASSIGNMENT ( #123, #81, ( #56 ) ) ;
#73 = LOCAL_TIME ( 17, 25, 36.00000000000000000, #183 ) ;
#74 = APPROVAL_ROLE ( '' ) ;
#75 = SHAPE_DEFINITION_REPRESENTATION ( #112, #129 ) ;
#76 = PERSON_AND_ORGANIZATION ( #9, #16 ) ;
#77 = DIRECTION ( 'NONE',  ( -1.000000000000000000, 0.000000000000000000, 0.000000000000000000 ) ) ;
#78 = ORIENTED_EDGE ( 'NONE', *, *, #49, .T. ) ;
#79 = COORDINATED_UNIVERSAL_TIME_OFFSET ( 1, 0, .AHEAD. ) ;
#80 = CARTESIAN_POINT ( 'NONE',  ( -3.000000000000000444, 0.000000000000000000, 0.000000000000000000 ) ) ;
#81 = PERSON_AND_ORGANIZATION_ROLE ( 'creator' ) ;
#82 = CC_DESIGN_PERSON_AND_ORGANIZATION_ASSIGNMENT ( #225, #62, ( #7 ) ) ;
#83 = EDGE_LOOP ( 'NONE', ( #60, #188, #160, #90 ) ) ;
#84 = AXIS2_PLACEMENT_3D ( 'NONE', #237, #136, #217 ) ;
#85 = AXIS2_PLACEMENT_3D ( 'NONE', #51, #128, #152 ) ;
#86 = DIRECTION ( 'NONE',  ( 0.000000000000000000, 0.000000000000000000, 1.000000000000000000 ) ) ;
#87 = COORDINATED_UNIVERSAL_TIME_OFFSET ( 1, 0, .AHEAD. ) ;
#88 = CYLINDRICAL_SURFACE ( 'NONE', #97, 3.000000000000000444 ) ;
#89 = DIRECTION ( 'NONE',  ( 0.000000000000000000, 0.000000000000000000, 1.000000000000000000 ) ) ;
#90 = ORIENTED_EDGE ( 'NONE', *, *, #109, .F. ) ;
#91 =( LENGTH_UNIT ( ) NAMED_UNIT ( * ) SI_UNIT ( .MILLI., .METRE. ) );
#92 = EDGE_LOOP ( 'NONE', ( #29, #244, #184, #78 ) ) ;
#93 = ORIENTED_EDGE ( 'NONE', *, *, #68, .F. ) ;
#94 = CARTESIAN_POINT ( 'NONE',  ( 3.000000000000000444, 3.673940397442060361E-16, 3.000000000000000000 ) ) ;
#95 = APPROVAL_STATUS ( 'not_yet_approved' ) ;
#96 = LOCAL_TIME ( 17, 25, 36.00000000000000000, #197 ) ;
#97 = AXIS2_PLACEMENT_3D ( 'NONE', #148, #212, #77 ) ;
#98 = CARTESIAN_POINT ( 'NONE',  ( 3.000000000000000444, 3.673940397442060361E-16, 0.000000000000000000 ) ) ;
#99 = ADVANCED_FACE ( 'NONE', ( #126 ), #70, .T. ) ;
#100 = DIRECTION ( 'NONE',  ( 1.000000000000000000, 0.000000000000000000, 0.000000000000000000 ) ) ;
#101 = ORIENTED_EDGE ( 'NONE', *, *, #27, .F. ) ;
#102 = COORDINATED_UNIVERSAL_TIME_OFFSET ( 1, 0, .AHEAD. ) ;
#103 = LOCAL_TIME ( 17, 25, 36.00000000000000000, #87 ) ;
#104 = VERTEX_POINT ( 'NONE', #10 ) ;
#105 = VECTOR ( 'NONE', #65, 1000.000000000000000 ) ;
#106 = ORIENTED_EDGE ( 'NONE', *, *, #246, .T. ) ;
#107 = LINE ( 'NONE', #210, #105 ) ;
#108 = CARTESIAN_POINT ( 'NONE',  ( 0.000000000000000000, 0.000000000000000000, 0.000000000000000000 ) ) ;
#109 = EDGE_CURVE ( 'NONE', #162, #186, #107, .T. ) ;
#110 = AXIS2_PLACEMENT_3D ( 'NONE', #13, #234, #164 ) ;
#111 = DIRECTION ( 'NONE',  ( 1.000000000000000000, 0.000000000000000000, -0.000000000000000000 ) ) ;
#112 = PRODUCT_DEFINITION_SHAPE ( 'NONE', 'NONE',  #56 ) ;
#113 = CIRCLE ( 'NONE', #84, 3.000000000000000444 ) ;
#114 = PERSON_AND_ORGANIZATION ( #9, #16 ) ;
#115 = DIRECTION ( 'NONE',  ( -0.000000000000000000, -0.000000000000000000, -1.000000000000000000 ) ) ;
#116 = ADVANCED_FACE ( 'NONE', ( #17 ), #193, .F. ) ;
#117 = AXIS2_PLACEMENT_3D ( 'NONE', #175, #118, #100 ) ;
#118 = DIRECTION ( 'NONE',  ( 0.000000000000000000, 0.000000000000000000, 1.000000000000000000 ) ) ;
#119 = ORIENTED_EDGE ( 'NONE', *, *, #49, .F. ) ;
#120 = EDGE_LOOP ( 'NONE', ( #101, #168, #227, #93 ) ) ;
#121 = ORIENTED_EDGE ( 'NONE', *, *, #68, .T. ) ;
#122 = ORIENTED_EDGE ( 'NONE', *, *, #178, .F. ) ;
#123 = PERSON_AND_ORGANIZATION ( #9, #16 ) ;
#124 = CARTESIAN_POINT ( 'NONE',  ( 0.000000000000000000, 0.000000000000000000, 3.000000000000000000 ) ) ;
#125 = CC_DESIGN_APPROVAL ( #238, ( #56 ) ) ;
#126 = FACE_OUTER_BOUND ( 'NONE', #92, .T. ) ;
#127 = APPROVAL ( #58, 'NEURÈENÝ' ) ;
#128 = DIRECTION ( 'NONE',  ( 0.000000000000000000, 0.000000000000000000, 1.000000000000000000 ) ) ;
#129 = ADVANCED_BREP_SHAPE_REPRESENTATION ( '454f', ( #25, #21 ), #222 ) ;
#130 = PLANE ( 'NONE',  #110 ) ;
#131 = ADVANCED_FACE ( 'NONE', ( #150, #166 ), #130, .T. ) ;
#132 = DIRECTION ( 'NONE',  ( 1.000000000000000000, 0.000000000000000000, 0.000000000000000000 ) ) ;
#133 = MECHANICAL_CONTEXT ( 'NONE', #11, 'mechanical' ) ;
#134 = CALENDAR_DATE ( 2023, 13, 2 ) ;
#135 = EDGE_CURVE ( 'NONE', #229, #242, #2, .T. ) ;
#136 = DIRECTION ( 'NONE',  ( 0.000000000000000000, 0.000000000000000000, 1.000000000000000000 ) ) ;
#137 = PERSON_AND_ORGANIZATION_ROLE ( 'classification_officer' ) ;
#138 = LINE ( 'NONE', #94, #214 ) ;
#139 = CIRCLE ( 'NONE', #204, 1.600000000000000089 ) ;
#140 = CIRCLE ( 'NONE', #19, 1.600000000000000089 ) ;
#141 = CC_DESIGN_APPROVAL ( #127, ( #7 ) ) ;
#142 = ORIENTED_EDGE ( 'NONE', *, *, #173, .T. ) ;
#143 = DATE_AND_TIME ( #200, #96 ) ;
#144 = EDGE_LOOP ( 'NONE', ( #119, #171 ) ) ;
#145 = ADVANCED_FACE ( 'NONE', ( #235 ), #88, .T. ) ;
#146 = LINE ( 'NONE', #251, #228 ) ;
#147 = APPROVAL_DATE_TIME ( #66, #238 ) ;
#148 = CARTESIAN_POINT ( 'NONE',  ( 0.000000000000000000, 0.000000000000000000, 3.000000000000000000 ) ) ;
#149 = DIRECTION ( 'NONE',  ( -0.000000000000000000, -0.000000000000000000, -1.000000000000000000 ) ) ;
#150 = FACE_BOUND ( 'NONE', #144, .T. ) ;
#151 = UNCERTAINTY_MEASURE_WITH_UNIT (LENGTH_MEASURE( 1.000000000000000082E-05 ), #91, 'distance_accuracy_value', 'NONE');
#152 = DIRECTION ( 'NONE',  ( 1.000000000000000000, 0.000000000000000000, 0.000000000000000000 ) ) ;
#153 = DIRECTION ( 'NONE',  ( 1.000000000000000000, 0.000000000000000000, 0.000000000000000000 ) ) ;
#154 = APPROVAL_PERSON_ORGANIZATION ( #6, #127, #26 ) ;
#155 = EDGE_CURVE ( 'NONE', #104, #186, #140, .T. ) ;
#156 = APPROVAL_DATE_TIME ( #241, #127 ) ;
#157 = PERSON_AND_ORGANIZATION_ROLE ( 'creator' ) ;
#158 = CYLINDRICAL_SURFACE ( 'NONE', #218, 3.000000000000000444 ) ;
#159 = PERSON_AND_ORGANIZATION ( #9, #16 ) ;
#160 = ORIENTED_EDGE ( 'NONE', *, *, #155, .T. ) ;
#161 = DATE_TIME_ROLE ( 'creation_date' ) ;
#162 = VERTEX_POINT ( 'NONE', #59 ) ;
#163 = CIRCLE ( 'NONE', #250, 1.600000000000000089 ) ;
#164 = DIRECTION ( 'NONE',  ( 1.000000000000000000, 0.000000000000000000, -0.000000000000000000 ) ) ;
#165 = CALENDAR_DATE ( 2023, 13, 2 ) ;
#166 = FACE_OUTER_BOUND ( 'NONE', #63, .T. ) ;
#167 = PERSON_AND_ORGANIZATION ( #9, #16 ) ;
#168 = ORIENTED_EDGE ( 'NONE', *, *, #201, .T. ) ;
#169 = DESIGN_CONTEXT ( 'detailed design', #3, 'design' ) ;
#170 = PRODUCT_RELATED_PRODUCT_CATEGORY ( 'detail', '', ( #54 ) ) ;
#171 = ORIENTED_EDGE ( 'NONE', *, *, #155, .F. ) ;
#172 = CARTESIAN_POINT ( 'NONE',  ( 0.000000000000000000, 0.000000000000000000, 160.0000000000000000 ) ) ;
#173 = EDGE_CURVE ( 'NONE', #162, #202, #230, .T. ) ;
#174 = AXIS2_PLACEMENT_3D ( 'NONE', #189, #31, #205 ) ;
#175 = CARTESIAN_POINT ( 'NONE',  ( 0.000000000000000000, 0.000000000000000000, 160.0000000000000000 ) ) ;
#176 = DIRECTION ( 'NONE',  ( 0.000000000000000000, 0.000000000000000000, 1.000000000000000000 ) ) ;
#177 = LOCAL_TIME ( 17, 25, 36.00000000000000000, #79 ) ;
#178 = EDGE_CURVE ( 'NONE', #242, #229, #113, .T. ) ;
#179 = APPROVAL_STATUS ( 'not_yet_approved' ) ;
#180 = CARTESIAN_POINT ( 'NONE',  ( 0.000000000000000000, 0.000000000000000000, 3.000000000000000000 ) ) ;
#181 = ORIENTED_EDGE ( 'NONE', *, *, #178, .T. ) ;
#182 = CARTESIAN_POINT ( 'NONE',  ( 0.000000000000000000, 0.000000000000000000, 3.000000000000000000 ) ) ;
#183 = COORDINATED_UNIVERSAL_TIME_OFFSET ( 1, 0, .AHEAD. ) ;
#184 = ORIENTED_EDGE ( 'NONE', *, *, #109, .T. ) ;
#185 = LOCAL_TIME ( 17, 25, 36.00000000000000000, #102 ) ;
#186 = VERTEX_POINT ( 'NONE', #38 ) ;
#187 = ADVANCED_FACE ( 'NONE', ( #213 ), #158, .T. ) ;
#188 = ORIENTED_EDGE ( 'NONE', *, *, #35, .T. ) ;
#189 = CARTESIAN_POINT ( 'NONE',  ( 0.000000000000000000, 0.000000000000000000, 160.0000000000000000 ) ) ;
#190 = CIRCLE ( 'NONE', #57, 3.000000000000000444 ) ;
#191 = CARTESIAN_POINT ( 'NONE',  ( 0.000000000000000000, 0.000000000000000000, 0.000000000000000000 ) ) ;
#192 = CC_DESIGN_DATE_AND_TIME_ASSIGNMENT ( #243, #42, ( #207 ) ) ;
#193 = PLANE ( 'NONE',  #199 ) ;
#194 = DIRECTION ( 'NONE',  ( -0.000000000000000000, -0.000000000000000000, -1.000000000000000000 ) ) ;
#195 = CC_DESIGN_SECURITY_CLASSIFICATION ( #207, ( #7 ) ) ;
#196 = CALENDAR_DATE ( 2023, 13, 2 ) ;
#197 = COORDINATED_UNIVERSAL_TIME_OFFSET ( 1, 0, .AHEAD. ) ;
#198 = CARTESIAN_POINT ( 'NONE',  ( 1.600000000000000089, 1.959434878635765230E-16, 160.0000000000000000 ) ) ;
#199 = AXIS2_PLACEMENT_3D ( 'NONE', #191, #86, #111 ) ;
#200 = CALENDAR_DATE ( 2023, 13, 2 ) ;
#201 = EDGE_CURVE ( 'NONE', #71, #229, #138, .T. ) ;
#202 = VERTEX_POINT ( 'NONE', #198 ) ;
#203 = ORIENTED_EDGE ( 'NONE', *, *, #135, .F. ) ;
#204 = AXIS2_PLACEMENT_3D ( 'NONE', #36, #176, #46 ) ;
#205 = DIRECTION ( 'NONE',  ( -1.000000000000000000, 0.000000000000000000, 0.000000000000000000 ) ) ;
#206 =( NAMED_UNIT ( * ) SI_UNIT ( $, .STERADIAN. ) SOLID_ANGLE_UNIT ( ) );
#207 = SECURITY_CLASSIFICATION ( '', '', #239 ) ;
#208 = DIRECTION ( 'NONE',  ( 1.000000000000000000, 0.000000000000000000, 0.000000000000000000 ) ) ;
#209 = APPROVAL ( #179, 'NEURÈENÝ' ) ;
#210 = CARTESIAN_POINT ( 'NONE',  ( -1.600000000000000089, 0.000000000000000000, 160.0000000000000000 ) ) ;
#211 = CARTESIAN_POINT ( 'NONE',  ( 1.600000000000000089, 1.959434878635765230E-16, 160.0000000000000000 ) ) ;
#212 = DIRECTION ( 'NONE',  ( -0.000000000000000000, -0.000000000000000000, -1.000000000000000000 ) ) ;
#213 = FACE_OUTER_BOUND ( 'NONE', #247, .T. ) ;
#214 = VECTOR ( 'NONE', #115, 1000.000000000000000 ) ;
#215 = CC_DESIGN_APPROVAL ( #209, ( #207 ) ) ;
#216 = CALENDAR_DATE ( 2023, 13, 2 ) ;
#217 = DIRECTION ( 'NONE',  ( 1.000000000000000000, 0.000000000000000000, 0.000000000000000000 ) ) ;
#218 = AXIS2_PLACEMENT_3D ( 'NONE', #182, #34, #5 ) ;
#219 = DIRECTION ( 'NONE',  ( 1.000000000000000000, 0.000000000000000000, 0.000000000000000000 ) ) ;
#220 = CC_DESIGN_PERSON_AND_ORGANIZATION_ASSIGNMENT ( #76, #157, ( #7 ) ) ;
#221 = AXIS2_PLACEMENT_3D ( 'NONE', #172, #194, #32 ) ;
#222 =( GEOMETRIC_REPRESENTATION_CONTEXT ( 3 ) GLOBAL_UNCERTAINTY_ASSIGNED_CONTEXT ( ( #151 ) ) GLOBAL_UNIT_ASSIGNED_CONTEXT ( ( #91, #50, #206 ) ) REPRESENTATION_CONTEXT ( 'NONE', 'WORKASPACE' ) );
#223 = EDGE_LOOP ( 'NONE', ( #142, #44 ) ) ;
#224 = VERTEX_POINT ( 'NONE', #24 ) ;
#225 = PERSON_AND_ORGANIZATION ( #9, #16 ) ;
#226 = CC_DESIGN_PERSON_AND_ORGANIZATION_ASSIGNMENT ( #159, #137, ( #207 ) ) ;
#227 = ORIENTED_EDGE ( 'NONE', *, *, #135, .T. ) ;
#228 = VECTOR ( 'NONE', #149, 1000.000000000000000 ) ;
#229 = VERTEX_POINT ( 'NONE', #98 ) ;
#230 = CIRCLE ( 'NONE', #117, 1.600000000000000089 ) ;
#231 = PLANE ( 'NONE',  #64 ) ;
#232 = VECTOR ( 'NONE', #33, 1000.000000000000000 ) ;
#233 = CARTESIAN_POINT ( 'NONE',  ( 3.000000000000000444, 3.673940397442060361E-16, 3.000000000000000000 ) ) ;
#234 = DIRECTION ( 'NONE',  ( 0.000000000000000000, 0.000000000000000000, 1.000000000000000000 ) ) ;
#235 = FACE_OUTER_BOUND ( 'NONE', #120, .T. ) ;
#236 = CIRCLE ( 'NONE', #254, 3.000000000000000444 ) ;
#237 = CARTESIAN_POINT ( 'NONE',  ( 0.000000000000000000, 0.000000000000000000, 0.000000000000000000 ) ) ;
#238 = APPROVAL ( #95, 'NEURÈENÝ' ) ;
#239 = SECURITY_CLASSIFICATION_LEVEL ( 'unclassified' ) ;
#240 = ORIENTED_EDGE ( 'NONE', *, *, #246, .F. ) ;
#241 = DATE_AND_TIME ( #196, #185 ) ;
#242 = VERTEX_POINT ( 'NONE', #80 ) ;
#243 = DATE_AND_TIME ( #134, #73 ) ;
#244 = ORIENTED_EDGE ( 'NONE', *, *, #173, .F. ) ;
#245 = FACE_OUTER_BOUND ( 'NONE', #223, .T. ) ;
#246 = EDGE_CURVE ( 'NONE', #224, #71, #236, .T. ) ;
#247 = EDGE_LOOP ( 'NONE', ( #14, #240, #121, #181 ) ) ;
#248 = APPLICATION_PROTOCOL_DEFINITION ( 'international standard', 'config_control_design', 1994, #3 ) ;
#249 = FACE_OUTER_BOUND ( 'NONE', #83, .T. ) ;
#250 = AXIS2_PLACEMENT_3D ( 'NONE', #30, #69, #48 ) ;
#251 = CARTESIAN_POINT ( 'NONE',  ( -3.000000000000000444, 0.000000000000000000, 3.000000000000000000 ) ) ;
#252 = EDGE_CURVE ( 'NONE', #202, #162, #139, .T. ) ;
#253 = DIRECTION ( 'NONE',  ( 1.000000000000000000, 0.000000000000000000, -0.000000000000000000 ) ) ;
#254 = AXIS2_PLACEMENT_3D ( 'NONE', #180, #4, #219 ) ;
#255 = APPROVAL_PERSON_ORGANIZATION ( #114, #238, #74 ) ;
ENDSEC;
END-ISO-10303-21;
