ISO-10303-21;
HEADER;
FILE_DESCRIPTION (( 'STEP AP203' ),
    '1' );
FILE_NAME ('a187.STEP',
    '2022-07-07T17:32:33',
    ( '' ),
    ( '' ),
    'SwSTEP 2.0',
    'SolidWorks 2019',
    '' );
FILE_SCHEMA (( 'CONFIG_CONTROL_DESIGN' ));
ENDSEC;

DATA;
#1 = EDGE_CURVE ( 'NONE', #54, #32, #153, .T. ) ;
#2 = VERTEX_POINT ( 'NONE', #82 ) ;
#3 = ORIENTED_EDGE ( 'NONE', *, *, #120, .F. ) ;
#4 = CC_DESIGN_SECURITY_CLASSIFICATION ( #168, ( #129 ) ) ;
#5 = AXIS2_PLACEMENT_3D ( 'NONE', #39, #124, #106 ) ;
#6 = CARTESIAN_POINT ( 'NONE',  ( 0.000000000000000000, 0.000000000000000000, 5.000000000000000000 ) ) ;
#7 = CC_DESIGN_PERSON_AND_ORGANIZATION_ASSIGNMENT ( #71, #31, ( #45 ) ) ;
#8 = AXIS2_PLACEMENT_3D ( 'NONE', #96, #217, #232 ) ;
#9 = CALENDAR_DATE ( 2022, 7, 7 ) ;
#10 = ORIENTED_EDGE ( 'NONE', *, *, #120, .T. ) ;
#11 = SHAPE_DEFINITION_REPRESENTATION ( #202, #167 ) ;
#12 = EDGE_LOOP ( 'NONE', ( #197, #146 ) ) ;
#13 = PERSON_AND_ORGANIZATION ( #185, #151 ) ;
#14 =( NAMED_UNIT ( * ) SI_UNIT ( $, .STERADIAN. ) SOLID_ANGLE_UNIT ( ) );
#15 = DIRECTION ( 'NONE',  ( -0.000000000000000000, -0.000000000000000000, -1.000000000000000000 ) ) ;
#16 = LINE ( 'NONE', #121, #116 ) ;
#17 = LOCAL_TIME ( 19, 32, 33.00000000000000000, #53 ) ;
#18 =( LENGTH_UNIT ( ) NAMED_UNIT ( * ) SI_UNIT ( .MILLI., .METRE. ) );
#19 = AXIS2_PLACEMENT_3D ( 'NONE', #103, #85, #166 ) ;
#20 = EDGE_CURVE ( 'NONE', #176, #143, #216, .T. ) ;
#21 = DIRECTION ( 'NONE',  ( -0.000000000000000000, -0.000000000000000000, -1.000000000000000000 ) ) ;
#22 = DIRECTION ( 'NONE',  ( 1.000000000000000000, 0.000000000000000000, 0.000000000000000000 ) ) ;
#23 = CLOSED_SHELL ( 'NONE', ( #214, #25, #248, #114, #201, #171, #28 ) ) ;
#24 = CC_DESIGN_APPROVAL ( #179, ( #168 ) ) ;
#25 = ADVANCED_FACE ( 'NONE', ( #204 ), #225, .T. ) ;
#26 = SECURITY_CLASSIFICATION_LEVEL ( 'unclassified' ) ;
#27 = DIRECTION ( 'NONE',  ( 0.000000000000000000, 0.000000000000000000, 1.000000000000000000 ) ) ;
#28 = ADVANCED_FACE ( 'NONE', ( #223 ), #170, .T. ) ;
#29 = APPROVAL_ROLE ( '' ) ;
#30 = DIRECTION ( 'NONE',  ( -0.000000000000000000, -0.000000000000000000, -1.000000000000000000 ) ) ;
#31 = PERSON_AND_ORGANIZATION_ROLE ( 'design_owner' ) ;
#32 = VERTEX_POINT ( 'NONE', #65 ) ;
#33 = DIRECTION ( 'NONE',  ( 1.000000000000000000, 0.000000000000000000, 0.000000000000000000 ) ) ;
#34 = DIRECTION ( 'NONE',  ( 0.000000000000000000, 0.000000000000000000, 1.000000000000000000 ) ) ;
#35 = AXIS2_PLACEMENT_3D ( 'NONE', #181, #252, #33 ) ;
#36 = CC_DESIGN_DATE_AND_TIME_ASSIGNMENT ( #150, #227, ( #168 ) ) ;
#37 = ORIENTED_EDGE ( 'NONE', *, *, #253, .T. ) ;
#38 = CARTESIAN_POINT ( 'NONE',  ( 0.000000000000000000, 0.000000000000000000, 505.0000000000000000 ) ) ;
#39 = CARTESIAN_POINT ( 'NONE',  ( 0.000000000000000000, 0.000000000000000000, 5.000000000000000000 ) ) ;
#40 = AXIS2_PLACEMENT_3D ( 'NONE', #64, #21, #147 ) ;
#41 = ORIENTED_EDGE ( 'NONE', *, *, #66, .T. ) ;
#42 = DIRECTION ( 'NONE',  ( 1.000000000000000000, 0.000000000000000000, 0.000000000000000000 ) ) ;
#43 = CARTESIAN_POINT ( 'NONE',  ( 4.000000000000000000, 4.898587196589412829E-16, 505.0000000000000000 ) ) ;
#44 = APPROVAL_PERSON_ORGANIZATION ( #206, #49, #29 ) ;
#45 = PRODUCT ( 'a187', 'a187', '', ( #155 ) ) ;
#46 = DIRECTION ( 'NONE',  ( 1.000000000000000000, 0.000000000000000000, 0.000000000000000000 ) ) ;
#47 = APPLICATION_PROTOCOL_DEFINITION ( 'international standard', 'config_control_design', 1994, #86 ) ;
#48 = EDGE_LOOP ( 'NONE', ( #209, #219 ) ) ;
#49 = APPROVAL ( #91, 'NEURÈENÝ' ) ;
#50 = MANIFOLD_SOLID_BREP ( 'Pøidat vysunutím3', #23 ) ;
#51 = COORDINATED_UNIVERSAL_TIME_OFFSET ( 1, 0, .AHEAD. ) ;
#52 = EDGE_LOOP ( 'NONE', ( #56, #193, #37, #254 ) ) ;
#53 = COORDINATED_UNIVERSAL_TIME_OFFSET ( 1, 0, .AHEAD. ) ;
#54 = VERTEX_POINT ( 'NONE', #43 ) ;
#55 = DIRECTION ( 'NONE',  ( -0.000000000000000000, -0.000000000000000000, -1.000000000000000000 ) ) ;
#56 = ORIENTED_EDGE ( 'NONE', *, *, #128, .F. ) ;
#57 = PLANE ( 'NONE',  #8 ) ;
#58 = CARTESIAN_POINT ( 'NONE',  ( 0.000000000000000000, 0.000000000000000000, 505.0000000000000000 ) ) ;
#59 = APPLICATION_CONTEXT ( 'configuration controlled 3d designs of mechanical parts and assemblies' ) ;
#60 = FACE_OUTER_BOUND ( 'NONE', #48, .T. ) ;
#61 = APPROVAL_PERSON_ORGANIZATION ( #152, #179, #192 ) ;
#62 = ORIENTED_EDGE ( 'NONE', *, *, #83, .F. ) ;
#63 =( GEOMETRIC_REPRESENTATION_CONTEXT ( 3 ) GLOBAL_UNCERTAINTY_ASSIGNED_CONTEXT ( ( #211 ) ) GLOBAL_UNIT_ASSIGNED_CONTEXT ( ( #18, #156, #14 ) ) REPRESENTATION_CONTEXT ( 'NONE', 'WORKASPACE' ) );
#64 = CARTESIAN_POINT ( 'NONE',  ( 0.000000000000000000, 0.000000000000000000, 5.000000000000000000 ) ) ;
#65 = CARTESIAN_POINT ( 'NONE',  ( -4.000000000000000000, 0.000000000000000000, 505.0000000000000000 ) ) ;
#66 = EDGE_CURVE ( 'NONE', #2, #160, #100, .T. ) ;
#67 = DIRECTION ( 'NONE',  ( 0.000000000000000000, 0.000000000000000000, 1.000000000000000000 ) ) ;
#68 = CALENDAR_DATE ( 2022, 7, 7 ) ;
#69 = PERSON_AND_ORGANIZATION_ROLE ( 'creator' ) ;
#70 = CIRCLE ( 'NONE', #188, 7.000000000000000000 ) ;
#71 = PERSON_AND_ORGANIZATION ( #185, #151 ) ;
#72 = ORIENTED_EDGE ( 'NONE', *, *, #1, .F. ) ;
#73 = PERSON_AND_ORGANIZATION ( #185, #151 ) ;
#74 = ORIENTED_EDGE ( 'NONE', *, *, #123, .T. ) ;
#75 = CARTESIAN_POINT ( 'NONE',  ( -7.000000000000000000, 0.000000000000000000, 0.000000000000000000 ) ) ;
#76 = CARTESIAN_POINT ( 'NONE',  ( -7.000000000000000000, 0.000000000000000000, 5.000000000000000000 ) ) ;
#77 = AXIS2_PLACEMENT_3D ( 'NONE', #161, #238, #140 ) ;
#78 = VECTOR ( 'NONE', #178, 1000.000000000000000 ) ;
#79 = FACE_OUTER_BOUND ( 'NONE', #126, .T. ) ;
#80 = AXIS2_PLACEMENT_3D ( 'NONE', #6, #205, #22 ) ;
#81 = ORIENTED_EDGE ( 'NONE', *, *, #208, .F. ) ;
#82 = CARTESIAN_POINT ( 'NONE',  ( -4.000000000000000000, 0.000000000000000000, 5.000000000000000000 ) ) ;
#83 = EDGE_CURVE ( 'NONE', #160, #2, #87, .T. ) ;
#84 = CARTESIAN_POINT ( 'NONE',  ( 0.000000000000000000, 0.000000000000000000, 5.000000000000000000 ) ) ;
#85 = DIRECTION ( 'NONE',  ( 0.000000000000000000, 0.000000000000000000, 1.000000000000000000 ) ) ;
#86 = APPLICATION_CONTEXT ( 'configuration controlled 3d designs of mechanical parts and assemblies' ) ;
#87 = CIRCLE ( 'NONE', #93, 4.000000000000000000 ) ;
#88 = COORDINATED_UNIVERSAL_TIME_OFFSET ( 1, 0, .AHEAD. ) ;
#89 = DIRECTION ( 'NONE',  ( 1.000000000000000000, 0.000000000000000000, 0.000000000000000000 ) ) ;
#90 = DATE_AND_TIME ( #191, #139 ) ;
#91 = APPROVAL_STATUS ( 'not_yet_approved' ) ;
#92 = EDGE_LOOP ( 'NONE', ( #169, #62 ) ) ;
#93 = AXIS2_PLACEMENT_3D ( 'NONE', #84, #189, #89 ) ;
#94 = DIRECTION ( 'NONE',  ( 1.000000000000000000, 0.000000000000000000, 0.000000000000000000 ) ) ;
#95 = EDGE_CURVE ( 'NONE', #203, #122, #200, .T. ) ;
#96 = CARTESIAN_POINT ( 'NONE',  ( 0.000000000000000000, 0.000000000000000000, 0.000000000000000000 ) ) ;
#97 = CARTESIAN_POINT ( 'NONE',  ( 0.000000000000000000, 0.000000000000000000, 5.000000000000000000 ) ) ;
#98 = LOCAL_TIME ( 19, 32, 33.00000000000000000, #132 ) ;
#99 = CC_DESIGN_PERSON_AND_ORGANIZATION_ASSIGNMENT ( #213, #117, ( #129 ) ) ;
#100 = CIRCLE ( 'NONE', #80, 4.000000000000000000 ) ;
#101 = DIRECTION ( 'NONE',  ( 0.000000000000000000, 0.000000000000000000, 1.000000000000000000 ) ) ;
#102 = CC_DESIGN_APPROVAL ( #49, ( #190 ) ) ;
#103 = CARTESIAN_POINT ( 'NONE',  ( 0.000000000000000000, 0.000000000000000000, 505.0000000000000000 ) ) ;
#104 = APPROVAL ( #157, 'NEURÈENÝ' ) ;
#105 = AXIS2_PLACEMENT_3D ( 'NONE', #162, #15, #250 ) ;
#106 = DIRECTION ( 'NONE',  ( 1.000000000000000000, 0.000000000000000000, -0.000000000000000000 ) ) ;
#107 = FACE_BOUND ( 'NONE', #92, .T. ) ;
#108 = PERSON_AND_ORGANIZATION ( #185, #151 ) ;
#109 = COORDINATED_UNIVERSAL_TIME_OFFSET ( 1, 0, .AHEAD. ) ;
#110 = ORIENTED_EDGE ( 'NONE', *, *, #20, .T. ) ;
#111 = PERSON_AND_ORGANIZATION_ROLE ( 'design_supplier' ) ;
#112 = EDGE_LOOP ( 'NONE', ( #81, #247, #74, #110 ) ) ;
#113 = DATE_AND_TIME ( #194, #207 ) ;
#114 = ADVANCED_FACE ( 'NONE', ( #107, #165 ), #220, .T. ) ;
#115 = FACE_OUTER_BOUND ( 'NONE', #237, .T. ) ;
#116 = VECTOR ( 'NONE', #118, 1000.000000000000000 ) ;
#117 = PERSON_AND_ORGANIZATION_ROLE ( 'creator' ) ;
#118 = DIRECTION ( 'NONE',  ( -0.000000000000000000, -0.000000000000000000, -1.000000000000000000 ) ) ;
#119 = LINE ( 'NONE', #235, #78 ) ;
#120 = EDGE_CURVE ( 'NONE', #32, #54, #125, .T. ) ;
#121 = CARTESIAN_POINT ( 'NONE',  ( -4.000000000000000000, 0.000000000000000000, 505.0000000000000000 ) ) ;
#122 = VERTEX_POINT ( 'NONE', #135 ) ;
#123 = EDGE_CURVE ( 'NONE', #203, #176, #119, .T. ) ;
#124 = DIRECTION ( 'NONE',  ( 0.000000000000000000, 0.000000000000000000, 1.000000000000000000 ) ) ;
#125 = CIRCLE ( 'NONE', #35, 4.000000000000000000 ) ;
#126 = EDGE_LOOP ( 'NONE', ( #180, #3, #184, #41 ) ) ;
#127 = PERSON_AND_ORGANIZATION ( #185, #151 ) ;
#128 = EDGE_CURVE ( 'NONE', #122, #203, #70, .T. ) ;
#129 = PRODUCT_DEFINITION_FORMATION_WITH_SPECIFIED_SOURCE ( 'LIBOVOLNÝ', '', #45, .NOT_KNOWN. ) ;
#130 = APPROVAL_STATUS ( 'not_yet_approved' ) ;
#131 = AXIS2_PLACEMENT_3D ( 'NONE', #38, #101, #183 ) ;
#132 = COORDINATED_UNIVERSAL_TIME_OFFSET ( 1, 0, .AHEAD. ) ;
#133 = CC_DESIGN_PERSON_AND_ORGANIZATION_ASSIGNMENT ( #108, #187, ( #168 ) ) ;
#134 = APPLICATION_PROTOCOL_DEFINITION ( 'international standard', 'config_control_design', 1994, #59 ) ;
#135 = CARTESIAN_POINT ( 'NONE',  ( 7.000000000000000000, 8.572527594031473190E-16, 5.000000000000000000 ) ) ;
#136 = APPROVAL_DATE_TIME ( #229, #104 ) ;
#137 = CYLINDRICAL_SURFACE ( 'NONE', #77, 7.000000000000000000 ) ;
#138 = ORIENTED_EDGE ( 'NONE', *, *, #83, .T. ) ;
#139 = LOCAL_TIME ( 19, 32, 33.00000000000000000, #109 ) ;
#140 = DIRECTION ( 'NONE',  ( -1.000000000000000000, 0.000000000000000000, 0.000000000000000000 ) ) ;
#141 = DIRECTION ( 'NONE',  ( -1.000000000000000000, 0.000000000000000000, 0.000000000000000000 ) ) ;
#142 = CC_DESIGN_APPROVAL ( #104, ( #129 ) ) ;
#143 = VERTEX_POINT ( 'NONE', #212 ) ;
#144 = PRODUCT_RELATED_PRODUCT_CATEGORY ( 'detail', '', ( #45 ) ) ;
#145 = CIRCLE ( 'NONE', #242, 7.000000000000000000 ) ;
#146 = ORIENTED_EDGE ( 'NONE', *, *, #128, .T. ) ;
#147 = DIRECTION ( 'NONE',  ( -1.000000000000000000, 0.000000000000000000, 0.000000000000000000 ) ) ;
#148 = CC_DESIGN_PERSON_AND_ORGANIZATION_ASSIGNMENT ( #13, #69, ( #190 ) ) ;
#149 = CARTESIAN_POINT ( 'NONE',  ( 0.000000000000000000, 0.000000000000000000, 0.000000000000000000 ) ) ;
#150 = DATE_AND_TIME ( #68, #173 ) ;
#151 = ORGANIZATION ( 'NEURÈENÝ', 'NEURÈENÝ', '' ) ;
#152 = PERSON_AND_ORGANIZATION ( #185, #151 ) ;
#153 = CIRCLE ( 'NONE', #131, 4.000000000000000000 ) ;
#154 = CC_DESIGN_DATE_AND_TIME_ASSIGNMENT ( #175, #249, ( #190 ) ) ;
#155 = MECHANICAL_CONTEXT ( 'NONE', #59, 'mechanical' ) ;
#156 =( NAMED_UNIT ( * ) PLANE_ANGLE_UNIT ( ) SI_UNIT ( $, .RADIAN. ) );
#157 = APPROVAL_STATUS ( 'not_yet_approved' ) ;
#158 = ORIENTED_EDGE ( 'NONE', *, *, #240, .F. ) ;
#159 = DIRECTION ( 'NONE',  ( -0.000000000000000000, -0.000000000000000000, -1.000000000000000000 ) ) ;
#160 = VERTEX_POINT ( 'NONE', #198 ) ;
#161 = CARTESIAN_POINT ( 'NONE',  ( 0.000000000000000000, 0.000000000000000000, 5.000000000000000000 ) ) ;
#162 = CARTESIAN_POINT ( 'NONE',  ( 0.000000000000000000, 0.000000000000000000, 505.0000000000000000 ) ) ;
#163 = CYLINDRICAL_SURFACE ( 'NONE', #222, 4.000000000000000000 ) ;
#164 = VECTOR ( 'NONE', #30, 1000.000000000000000 ) ;
#165 = FACE_OUTER_BOUND ( 'NONE', #12, .T. ) ;
#166 = DIRECTION ( 'NONE',  ( 1.000000000000000000, 0.000000000000000000, -0.000000000000000000 ) ) ;
#167 = ADVANCED_BREP_SHAPE_REPRESENTATION ( 'a187', ( #50, #236 ), #63 ) ;
#168 = SECURITY_CLASSIFICATION ( '', '', #26 ) ;
#169 = ORIENTED_EDGE ( 'NONE', *, *, #66, .F. ) ;
#170 = PLANE ( 'NONE',  #19 ) ;
#171 = ADVANCED_FACE ( 'NONE', ( #79 ), #177, .T. ) ;
#172 = APPROVAL_DATE_TIME ( #90, #179 ) ;
#173 = LOCAL_TIME ( 19, 32, 33.00000000000000000, #88 ) ;
#174 = CARTESIAN_POINT ( 'NONE',  ( 0.000000000000000000, 0.000000000000000000, 0.000000000000000000 ) ) ;
#175 = DATE_AND_TIME ( #231, #98 ) ;
#176 = VERTEX_POINT ( 'NONE', #75 ) ;
#177 = CYLINDRICAL_SURFACE ( 'NONE', #105, 4.000000000000000000 ) ;
#178 = DIRECTION ( 'NONE',  ( -0.000000000000000000, -0.000000000000000000, -1.000000000000000000 ) ) ;
#179 = APPROVAL ( #130, 'NEURÈENÝ' ) ;
#180 = ORIENTED_EDGE ( 'NONE', *, *, #186, .F. ) ;
#181 = CARTESIAN_POINT ( 'NONE',  ( 0.000000000000000000, 0.000000000000000000, 505.0000000000000000 ) ) ;
#182 = LINE ( 'NONE', #199, #164 ) ;
#183 = DIRECTION ( 'NONE',  ( 1.000000000000000000, 0.000000000000000000, 0.000000000000000000 ) ) ;
#184 = ORIENTED_EDGE ( 'NONE', *, *, #240, .T. ) ;
#185 = PERSON ( 'NEURÈENÝ', 'NEURÈENÝ', 'NEURÈENÝ', ('NEURÈENÝ'), ('NEURÈENÝ'), ('NEURÈENÝ') ) ;
#186 = EDGE_CURVE ( 'NONE', #54, #160, #241, .T. ) ;
#187 = PERSON_AND_ORGANIZATION_ROLE ( 'classification_officer' ) ;
#188 = AXIS2_PLACEMENT_3D ( 'NONE', #97, #255, #94 ) ;
#189 = DIRECTION ( 'NONE',  ( 0.000000000000000000, 0.000000000000000000, 1.000000000000000000 ) ) ;
#190 = PRODUCT_DEFINITION ( 'NEZNÁMÝ', '', #129, #228 ) ;
#191 = CALENDAR_DATE ( 2022, 7, 7 ) ;
#192 = APPROVAL_ROLE ( '' ) ;
#193 = ORIENTED_EDGE ( 'NONE', *, *, #208, .T. ) ;
#194 = CALENDAR_DATE ( 2022, 7, 7 ) ;
#195 = DIRECTION ( 'NONE',  ( 1.000000000000000000, 0.000000000000000000, 0.000000000000000000 ) ) ;
#196 = AXIS2_PLACEMENT_3D ( 'NONE', #149, #224, #42 ) ;
#197 = ORIENTED_EDGE ( 'NONE', *, *, #95, .T. ) ;
#198 = CARTESIAN_POINT ( 'NONE',  ( 4.000000000000000000, 4.898587196589412829E-16, 5.000000000000000000 ) ) ;
#199 = CARTESIAN_POINT ( 'NONE',  ( 7.000000000000000000, 8.572527594031473190E-16, 5.000000000000000000 ) ) ;
#200 = CIRCLE ( 'NONE', #230, 7.000000000000000000 ) ;
#201 = ADVANCED_FACE ( 'NONE', ( #60 ), #57, .F. ) ;
#202 = PRODUCT_DEFINITION_SHAPE ( 'NONE', 'NONE',  #190 ) ;
#203 = VERTEX_POINT ( 'NONE', #76 ) ;
#204 = FACE_OUTER_BOUND ( 'NONE', #52, .T. ) ;
#205 = DIRECTION ( 'NONE',  ( 0.000000000000000000, 0.000000000000000000, 1.000000000000000000 ) ) ;
#206 = PERSON_AND_ORGANIZATION ( #185, #151 ) ;
#207 = LOCAL_TIME ( 19, 32, 33.00000000000000000, #51 ) ;
#208 = EDGE_CURVE ( 'NONE', #122, #143, #182, .T. ) ;
#209 = ORIENTED_EDGE ( 'NONE', *, *, #20, .F. ) ;
#210 = ORIENTED_EDGE ( 'NONE', *, *, #1, .T. ) ;
#211 = UNCERTAINTY_MEASURE_WITH_UNIT (LENGTH_MEASURE( 1.000000000000000082E-05 ), #18, 'distance_accuracy_value', 'NONE');
#212 = CARTESIAN_POINT ( 'NONE',  ( 7.000000000000000000, 8.572527594031473190E-16, 0.000000000000000000 ) ) ;
#213 = PERSON_AND_ORGANIZATION ( #185, #151 ) ;
#214 = ADVANCED_FACE ( 'NONE', ( #115 ), #163, .T. ) ;
#215 = FACE_OUTER_BOUND ( 'NONE', #112, .T. ) ;
#216 = CIRCLE ( 'NONE', #196, 7.000000000000000000 ) ;
#217 = DIRECTION ( 'NONE',  ( 0.000000000000000000, 0.000000000000000000, 1.000000000000000000 ) ) ;
#218 = CARTESIAN_POINT ( 'NONE',  ( 0.000000000000000000, 0.000000000000000000, 0.000000000000000000 ) ) ;
#219 = ORIENTED_EDGE ( 'NONE', *, *, #253, .F. ) ;
#220 = PLANE ( 'NONE',  #5 ) ;
#221 = CC_DESIGN_PERSON_AND_ORGANIZATION_ASSIGNMENT ( #127, #111, ( #129 ) ) ;
#222 = AXIS2_PLACEMENT_3D ( 'NONE', #58, #55, #141 ) ;
#223 = FACE_OUTER_BOUND ( 'NONE', #234, .T. ) ;
#224 = DIRECTION ( 'NONE',  ( 0.000000000000000000, 0.000000000000000000, 1.000000000000000000 ) ) ;
#225 = CYLINDRICAL_SURFACE ( 'NONE', #40, 7.000000000000000000 ) ;
#226 = VECTOR ( 'NONE', #159, 1000.000000000000000 ) ;
#227 = DATE_TIME_ROLE ( 'classification_date' ) ;
#228 = DESIGN_CONTEXT ( 'detailed design', #86, 'design' ) ;
#229 = DATE_AND_TIME ( #9, #17 ) ;
#230 = AXIS2_PLACEMENT_3D ( 'NONE', #244, #67, #46 ) ;
#231 = CALENDAR_DATE ( 2022, 7, 7 ) ;
#232 = DIRECTION ( 'NONE',  ( 1.000000000000000000, 0.000000000000000000, -0.000000000000000000 ) ) ;
#233 = APPROVAL_DATE_TIME ( #113, #49 ) ;
#234 = EDGE_LOOP ( 'NONE', ( #10, #210 ) ) ;
#235 = CARTESIAN_POINT ( 'NONE',  ( -7.000000000000000000, 0.000000000000000000, 5.000000000000000000 ) ) ;
#236 = AXIS2_PLACEMENT_3D ( 'NONE', #174, #27, #245 ) ;
#237 = EDGE_LOOP ( 'NONE', ( #72, #251, #138, #158 ) ) ;
#238 = DIRECTION ( 'NONE',  ( -0.000000000000000000, -0.000000000000000000, -1.000000000000000000 ) ) ;
#239 = CARTESIAN_POINT ( 'NONE',  ( 4.000000000000000000, 4.898587196589412829E-16, 505.0000000000000000 ) ) ;
#240 = EDGE_CURVE ( 'NONE', #32, #2, #16, .T. ) ;
#241 = LINE ( 'NONE', #239, #226 ) ;
#242 = AXIS2_PLACEMENT_3D ( 'NONE', #218, #34, #195 ) ;
#243 = APPROVAL_ROLE ( '' ) ;
#244 = CARTESIAN_POINT ( 'NONE',  ( 0.000000000000000000, 0.000000000000000000, 5.000000000000000000 ) ) ;
#245 = DIRECTION ( 'NONE',  ( 1.000000000000000000, 0.000000000000000000, 0.000000000000000000 ) ) ;
#246 = APPROVAL_PERSON_ORGANIZATION ( #73, #104, #243 ) ;
#247 = ORIENTED_EDGE ( 'NONE', *, *, #95, .F. ) ;
#248 = ADVANCED_FACE ( 'NONE', ( #215 ), #137, .T. ) ;
#249 = DATE_TIME_ROLE ( 'creation_date' ) ;
#250 = DIRECTION ( 'NONE',  ( -1.000000000000000000, 0.000000000000000000, 0.000000000000000000 ) ) ;
#251 = ORIENTED_EDGE ( 'NONE', *, *, #186, .T. ) ;
#252 = DIRECTION ( 'NONE',  ( 0.000000000000000000, 0.000000000000000000, 1.000000000000000000 ) ) ;
#253 = EDGE_CURVE ( 'NONE', #143, #176, #145, .T. ) ;
#254 = ORIENTED_EDGE ( 'NONE', *, *, #123, .F. ) ;
#255 = DIRECTION ( 'NONE',  ( 0.000000000000000000, 0.000000000000000000, 1.000000000000000000 ) ) ;
ENDSEC;
END-ISO-10303-21;
