ISO-10303-21;
HEADER;
FILE_DESCRIPTION (( 'STEP AP203' ),
    '1' );
FILE_NAME ('9d8e.STEP',
    '2022-07-07T17:55:31',
    ( '' ),
    ( '' ),
    'SwSTEP 2.0',
    'SolidWorks 2019',
    '' );
FILE_SCHEMA (( 'CONFIG_CONTROL_DESIGN' ));
ENDSEC;

DATA;
#1 = AXIS2_PLACEMENT_3D ( 'NONE', #239, #161, #68 ) ;
#2 = CC_DESIGN_DATE_AND_TIME_ASSIGNMENT ( #13, #195, ( #217 ) ) ;
#3 = CARTESIAN_POINT ( 'NONE',  ( 0.000000000000000000, 0.000000000000000000, 103.0000000000000142 ) ) ;
#4 = ORIENTED_EDGE ( 'NONE', *, *, #92, .F. ) ;
#5 = DIRECTION ( 'NONE',  ( -0.000000000000000000, -0.000000000000000000, -1.000000000000000000 ) ) ;
#6 = ORIENTED_EDGE ( 'NONE', *, *, #116, .F. ) ;
#7 = DIRECTION ( 'NONE',  ( 1.000000000000000000, 0.000000000000000000, 0.000000000000000000 ) ) ;
#8 = ORIENTED_EDGE ( 'NONE', *, *, #111, .T. ) ;
#9 = DIRECTION ( 'NONE',  ( 0.000000000000000000, 0.000000000000000000, 1.000000000000000000 ) ) ;
#10 =( NAMED_UNIT ( * ) SI_UNIT ( $, .STERADIAN. ) SOLID_ANGLE_UNIT ( ) );
#11 = ORIENTED_EDGE ( 'NONE', *, *, #116, .T. ) ;
#12 = CARTESIAN_POINT ( 'NONE',  ( 0.000000000000000000, 0.000000000000000000, 3.000000000000000000 ) ) ;
#13 = DATE_AND_TIME ( #39, #59 ) ;
#14 = EDGE_CURVE ( 'NONE', #164, #183, #189, .T. ) ;
#15 = COORDINATED_UNIVERSAL_TIME_OFFSET ( 1, 0, .AHEAD. ) ;
#16 = PERSON_AND_ORGANIZATION ( #168, #246 ) ;
#17 = ADVANCED_BREP_SHAPE_REPRESENTATION ( '9d8e', ( #64, #158 ), #55 ) ;
#18 = CC_DESIGN_PERSON_AND_ORGANIZATION_ASSIGNMENT ( #196, #80, ( #117 ) ) ;
#19 = CC_DESIGN_APPROVAL ( #62, ( #217 ) ) ;
#20 = ORIENTED_EDGE ( 'NONE', *, *, #82, .F. ) ;
#21 = AXIS2_PLACEMENT_3D ( 'NONE', #204, #125, #90 ) ;
#22 = DIRECTION ( 'NONE',  ( 1.000000000000000000, 0.000000000000000000, -0.000000000000000000 ) ) ;
#23 = DIRECTION ( 'NONE',  ( -1.000000000000000000, 0.000000000000000000, 0.000000000000000000 ) ) ;
#24 = UNCERTAINTY_MEASURE_WITH_UNIT (LENGTH_MEASURE( 1.000000000000000082E-05 ), #165, 'distance_accuracy_value', 'NONE');
#25 = LOCAL_TIME ( 19, 55, 31.00000000000000000, #136 ) ;
#26 = DIRECTION ( 'NONE',  ( 0.000000000000000000, 0.000000000000000000, 1.000000000000000000 ) ) ;
#27 = VERTEX_POINT ( 'NONE', #245 ) ;
#28 = CARTESIAN_POINT ( 'NONE',  ( 3.000000000000000444, 3.673940397442060361E-16, 3.000000000000000000 ) ) ;
#29 = AXIS2_PLACEMENT_3D ( 'NONE', #3, #119, #23 ) ;
#30 = EDGE_CURVE ( 'NONE', #164, #84, #114, .T. ) ;
#31 = CARTESIAN_POINT ( 'NONE',  ( -1.600000000000000089, 0.000000000000000000, 3.000000000000000000 ) ) ;
#32 = ORIENTED_EDGE ( 'NONE', *, *, #82, .T. ) ;
#33 = CARTESIAN_POINT ( 'NONE',  ( 1.600000000000000089, 1.959434878635765230E-16, 103.0000000000000142 ) ) ;
#34 = DIRECTION ( 'NONE',  ( -0.000000000000000000, -0.000000000000000000, -1.000000000000000000 ) ) ;
#35 = PERSON_AND_ORGANIZATION ( #168, #246 ) ;
#36 = EDGE_CURVE ( 'NONE', #240, #99, #127, .T. ) ;
#37 = DIRECTION ( 'NONE',  ( -0.000000000000000000, -0.000000000000000000, -1.000000000000000000 ) ) ;
#38 = CALENDAR_DATE ( 2022, 7, 7 ) ;
#39 = CALENDAR_DATE ( 2022, 7, 7 ) ;
#40 = PRODUCT_DEFINITION_FORMATION_WITH_SPECIFIED_SOURCE ( 'LIBOVOLNÝ', '', #117, .NOT_KNOWN. ) ;
#41 = EDGE_LOOP ( 'NONE', ( #243, #145 ) ) ;
#42 = CC_DESIGN_PERSON_AND_ORGANIZATION_ASSIGNMENT ( #130, #172, ( #40 ) ) ;
#43 = LOCAL_TIME ( 19, 55, 31.00000000000000000, #81 ) ;
#44 = AXIS2_PLACEMENT_3D ( 'NONE', #221, #9, #45 ) ;
#45 = DIRECTION ( 'NONE',  ( 1.000000000000000000, 0.000000000000000000, 0.000000000000000000 ) ) ;
#46 = APPROVAL_PERSON_ORGANIZATION ( #35, #52, #248 ) ;
#47 = ORIENTED_EDGE ( 'NONE', *, *, #14, .T. ) ;
#48 = LINE ( 'NONE', #118, #79 ) ;
#49 = PLANE ( 'NONE',  #179 ) ;
#50 = ORIENTED_EDGE ( 'NONE', *, *, #160, .F. ) ;
#51 = CARTESIAN_POINT ( 'NONE',  ( 0.000000000000000000, 0.000000000000000000, 3.000000000000000000 ) ) ;
#52 = APPROVAL ( #253, 'NEURÈENÝ' ) ;
#53 = CARTESIAN_POINT ( 'NONE',  ( 3.000000000000000444, 3.673940397442060361E-16, 3.000000000000000000 ) ) ;
#54 = FACE_OUTER_BOUND ( 'NONE', #41, .T. ) ;
#55 =( GEOMETRIC_REPRESENTATION_CONTEXT ( 3 ) GLOBAL_UNCERTAINTY_ASSIGNED_CONTEXT ( ( #24 ) ) GLOBAL_UNIT_ASSIGNED_CONTEXT ( ( #165, #71, #10 ) ) REPRESENTATION_CONTEXT ( 'NONE', 'WORKASPACE' ) );
#56 = APPLICATION_CONTEXT ( 'configuration controlled 3d designs of mechanical parts and assemblies' ) ;
#57 = PERSON_AND_ORGANIZATION ( #168, #246 ) ;
#58 = CYLINDRICAL_SURFACE ( 'NONE', #254, 3.000000000000000444 ) ;
#59 = LOCAL_TIME ( 19, 55, 31.00000000000000000, #216 ) ;
#60 = SHAPE_DEFINITION_REPRESENTATION ( #200, #17 ) ;
#61 = MECHANICAL_CONTEXT ( 'NONE', #176, 'mechanical' ) ;
#62 = APPROVAL ( #154, 'NEURÈENÝ' ) ;
#63 = EDGE_CURVE ( 'NONE', #27, #183, #218, .T. ) ;
#64 = MANIFOLD_SOLID_BREP ( 'Pøidat vysunutím3', #140 ) ;
#65 = ORIENTED_EDGE ( 'NONE', *, *, #92, .T. ) ;
#66 = CC_DESIGN_APPROVAL ( #134, ( #40 ) ) ;
#67 = EDGE_LOOP ( 'NONE', ( #6, #72, #190, #32 ) ) ;
#68 = DIRECTION ( 'NONE',  ( 1.000000000000000000, 0.000000000000000000, 0.000000000000000000 ) ) ;
#69 = ADVANCED_FACE ( 'NONE', ( #227 ), #49, .T. ) ;
#70 = ORIENTED_EDGE ( 'NONE', *, *, #139, .F. ) ;
#71 =( NAMED_UNIT ( * ) PLANE_ANGLE_UNIT ( ) SI_UNIT ( $, .RADIAN. ) );
#72 = ORIENTED_EDGE ( 'NONE', *, *, #111, .F. ) ;
#73 = AXIS2_PLACEMENT_3D ( 'NONE', #143, #126, #7 ) ;
#74 = APPLICATION_PROTOCOL_DEFINITION ( 'international standard', 'config_control_design', 1994, #176 ) ;
#75 = CARTESIAN_POINT ( 'NONE',  ( 0.000000000000000000, 0.000000000000000000, 3.000000000000000000 ) ) ;
#76 = DATE_AND_TIME ( #250, #213 ) ;
#77 = CARTESIAN_POINT ( 'NONE',  ( -3.000000000000000444, 0.000000000000000000, 0.000000000000000000 ) ) ;
#78 = DATE_AND_TIME ( #236, #43 ) ;
#79 = VECTOR ( 'NONE', #5, 1000.000000000000000 ) ;
#80 = PERSON_AND_ORGANIZATION_ROLE ( 'design_owner' ) ;
#81 = COORDINATED_UNIVERSAL_TIME_OFFSET ( 1, 0, .AHEAD. ) ;
#82 = EDGE_CURVE ( 'NONE', #99, #240, #175, .T. ) ;
#83 = ORIENTED_EDGE ( 'NONE', *, *, #36, .T. ) ;
#84 = VERTEX_POINT ( 'NONE', #53 ) ;
#85 = CC_DESIGN_PERSON_AND_ORGANIZATION_ASSIGNMENT ( #57, #235, ( #40 ) ) ;
#86 = DIRECTION ( 'NONE',  ( 0.000000000000000000, 0.000000000000000000, 1.000000000000000000 ) ) ;
#87 = EDGE_LOOP ( 'NONE', ( #70, #11, #83, #50 ) ) ;
#88 = DIRECTION ( 'NONE',  ( 0.000000000000000000, 0.000000000000000000, 1.000000000000000000 ) ) ;
#89 = EDGE_LOOP ( 'NONE', ( #20, #96 ) ) ;
#90 = DIRECTION ( 'NONE',  ( 1.000000000000000000, 0.000000000000000000, -0.000000000000000000 ) ) ;
#91 = PERSON_AND_ORGANIZATION_ROLE ( 'classification_officer' ) ;
#92 = EDGE_CURVE ( 'NONE', #183, #27, #108, .T. ) ;
#93 = DIRECTION ( 'NONE',  ( 1.000000000000000000, 0.000000000000000000, 0.000000000000000000 ) ) ;
#94 = DATE_AND_TIME ( #107, #25 ) ;
#95 = AXIS2_PLACEMENT_3D ( 'NONE', #162, #86, #141 ) ;
#96 = ORIENTED_EDGE ( 'NONE', *, *, #36, .F. ) ;
#97 = CARTESIAN_POINT ( 'NONE',  ( -3.000000000000000444, 0.000000000000000000, 3.000000000000000000 ) ) ;
#98 = CARTESIAN_POINT ( 'NONE',  ( 0.000000000000000000, 0.000000000000000000, 103.0000000000000142 ) ) ;
#99 = VERTEX_POINT ( 'NONE', #31 ) ;
#100 = CC_DESIGN_APPROVAL ( #52, ( #224 ) ) ;
#101 = EDGE_LOOP ( 'NONE', ( #123, #124, #202, #222 ) ) ;
#102 = AXIS2_PLACEMENT_3D ( 'NONE', #51, #192, #173 ) ;
#103 = ORIENTED_EDGE ( 'NONE', *, *, #30, .F. ) ;
#104 = CARTESIAN_POINT ( 'NONE',  ( 0.000000000000000000, 0.000000000000000000, 103.0000000000000142 ) ) ;
#105 = DIRECTION ( 'NONE',  ( 1.000000000000000000, 0.000000000000000000, -0.000000000000000000 ) ) ;
#106 = FACE_OUTER_BOUND ( 'NONE', #128, .T. ) ;
#107 = CALENDAR_DATE ( 2022, 7, 7 ) ;
#108 = CIRCLE ( 'NONE', #138, 3.000000000000000444 ) ;
#109 = DIRECTION ( 'NONE',  ( -1.000000000000000000, 0.000000000000000000, 0.000000000000000000 ) ) ;
#110 = COORDINATED_UNIVERSAL_TIME_OFFSET ( 1, 0, .AHEAD. ) ;
#111 = EDGE_CURVE ( 'NONE', #184, #186, #156, .T. ) ;
#112 = CC_DESIGN_SECURITY_CLASSIFICATION ( #217, ( #40 ) ) ;
#113 = DATE_AND_TIME ( #38, #193 ) ;
#114 = CIRCLE ( 'NONE', #198, 3.000000000000000444 ) ;
#115 = CIRCLE ( 'NONE', #181, 1.600000000000000089 ) ;
#116 = EDGE_CURVE ( 'NONE', #186, #240, #48, .T. ) ;
#117 = PRODUCT ( '9d8e', '9d8e', '', ( #61 ) ) ;
#118 = CARTESIAN_POINT ( 'NONE',  ( 1.600000000000000089, 1.959434878635765230E-16, 103.0000000000000142 ) ) ;
#119 = DIRECTION ( 'NONE',  ( -0.000000000000000000, -0.000000000000000000, -1.000000000000000000 ) ) ;
#120 = ADVANCED_FACE ( 'NONE', ( #199 ), #122, .T. ) ;
#121 = EDGE_LOOP ( 'NONE', ( #4, #228 ) ) ;
#122 = CYLINDRICAL_SURFACE ( 'NONE', #29, 1.600000000000000089 ) ;
#123 = ORIENTED_EDGE ( 'NONE', *, *, #220, .F. ) ;
#124 = ORIENTED_EDGE ( 'NONE', *, *, #188, .T. ) ;
#125 = DIRECTION ( 'NONE',  ( 0.000000000000000000, 0.000000000000000000, 1.000000000000000000 ) ) ;
#126 = DIRECTION ( 'NONE',  ( 0.000000000000000000, 0.000000000000000000, 1.000000000000000000 ) ) ;
#127 = CIRCLE ( 'NONE', #73, 1.600000000000000089 ) ;
#128 = EDGE_LOOP ( 'NONE', ( #148, #103, #47, #65 ) ) ;
#129 = FACE_BOUND ( 'NONE', #89, .T. ) ;
#130 = PERSON_AND_ORGANIZATION ( #168, #246 ) ;
#131 = DIRECTION ( 'NONE',  ( -0.000000000000000000, -0.000000000000000000, -1.000000000000000000 ) ) ;
#132 = PERSON_AND_ORGANIZATION_ROLE ( 'creator' ) ;
#133 = AXIS2_PLACEMENT_3D ( 'NONE', #75, #34, #152 ) ;
#134 = APPROVAL ( #151, 'NEURÈENÝ' ) ;
#135 = APPROVAL_ROLE ( '' ) ;
#136 = COORDINATED_UNIVERSAL_TIME_OFFSET ( 1, 0, .AHEAD. ) ;
#137 = APPROVAL_PERSON_ORGANIZATION ( #16, #62, #155 ) ;
#138 = AXIS2_PLACEMENT_3D ( 'NONE', #163, #26, #208 ) ;
#139 = EDGE_CURVE ( 'NONE', #186, #184, #115, .T. ) ;
#140 = CLOSED_SHELL ( 'NONE', ( #252, #238, #167, #203, #153, #120, #69 ) ) ;
#141 = DIRECTION ( 'NONE',  ( 1.000000000000000000, 0.000000000000000000, 0.000000000000000000 ) ) ;
#142 = VECTOR ( 'NONE', #225, 1000.000000000000000 ) ;
#143 = CARTESIAN_POINT ( 'NONE',  ( 0.000000000000000000, 0.000000000000000000, 3.000000000000000000 ) ) ;
#144 = FACE_OUTER_BOUND ( 'NONE', #121, .T. ) ;
#145 = ORIENTED_EDGE ( 'NONE', *, *, #220, .T. ) ;
#146 = CYLINDRICAL_SURFACE ( 'NONE', #133, 3.000000000000000444 ) ;
#147 = DIRECTION ( 'NONE',  ( 1.000000000000000000, 0.000000000000000000, 0.000000000000000000 ) ) ;
#148 = ORIENTED_EDGE ( 'NONE', *, *, #188, .F. ) ;
#149 = CARTESIAN_POINT ( 'NONE',  ( 0.000000000000000000, 0.000000000000000000, 0.000000000000000000 ) ) ;
#150 = CARTESIAN_POINT ( 'NONE',  ( -1.600000000000000089, 0.000000000000000000, 103.0000000000000142 ) ) ;
#151 = APPROVAL_STATUS ( 'not_yet_approved' ) ;
#152 = DIRECTION ( 'NONE',  ( -1.000000000000000000, 0.000000000000000000, 0.000000000000000000 ) ) ;
#153 = ADVANCED_FACE ( 'NONE', ( #144 ), #185, .F. ) ;
#154 = APPROVAL_STATUS ( 'not_yet_approved' ) ;
#155 = APPROVAL_ROLE ( '' ) ;
#156 = CIRCLE ( 'NONE', #44, 1.600000000000000089 ) ;
#157 = DATE_TIME_ROLE ( 'creation_date' ) ;
#158 = AXIS2_PLACEMENT_3D ( 'NONE', #149, #177, #93 ) ;
#159 = VECTOR ( 'NONE', #131, 1000.000000000000000 ) ;
#160 = EDGE_CURVE ( 'NONE', #184, #99, #229, .T. ) ;
#161 = DIRECTION ( 'NONE',  ( 0.000000000000000000, 0.000000000000000000, 1.000000000000000000 ) ) ;
#162 = CARTESIAN_POINT ( 'NONE',  ( 0.000000000000000000, 0.000000000000000000, 3.000000000000000000 ) ) ;
#163 = CARTESIAN_POINT ( 'NONE',  ( 0.000000000000000000, 0.000000000000000000, 0.000000000000000000 ) ) ;
#164 = VERTEX_POINT ( 'NONE', #206 ) ;
#165 =( LENGTH_UNIT ( ) NAMED_UNIT ( * ) SI_UNIT ( .MILLI., .METRE. ) );
#166 = DIRECTION ( 'NONE',  ( 1.000000000000000000, 0.000000000000000000, 0.000000000000000000 ) ) ;
#167 = ADVANCED_FACE ( 'NONE', ( #106 ), #146, .T. ) ;
#168 = PERSON ( 'NEURÈENÝ', 'NEURÈENÝ', 'NEURÈENÝ', ('NEURÈENÝ'), ('NEURÈENÝ'), ('NEURÈENÝ') ) ;
#169 = DIRECTION ( 'NONE',  ( -1.000000000000000000, 0.000000000000000000, 0.000000000000000000 ) ) ;
#170 = CARTESIAN_POINT ( 'NONE',  ( -1.600000000000000089, 0.000000000000000000, 103.0000000000000142 ) ) ;
#171 = LINE ( 'NONE', #28, #187 ) ;
#172 = PERSON_AND_ORGANIZATION_ROLE ( 'design_supplier' ) ;
#173 = DIRECTION ( 'NONE',  ( 1.000000000000000000, 0.000000000000000000, 0.000000000000000000 ) ) ;
#174 = APPROVAL_DATE_TIME ( #78, #52 ) ;
#175 = CIRCLE ( 'NONE', #95, 1.600000000000000089 ) ;
#176 = APPLICATION_CONTEXT ( 'configuration controlled 3d designs of mechanical parts and assemblies' ) ;
#177 = DIRECTION ( 'NONE',  ( 0.000000000000000000, 0.000000000000000000, 1.000000000000000000 ) ) ;
#178 = APPROVAL_PERSON_ORGANIZATION ( #211, #134, #135 ) ;
#179 = AXIS2_PLACEMENT_3D ( 'NONE', #223, #237, #22 ) ;
#180 = CC_DESIGN_DATE_AND_TIME_ASSIGNMENT ( #113, #157, ( #224 ) ) ;
#181 = AXIS2_PLACEMENT_3D ( 'NONE', #98, #201, #166 ) ;
#182 = CARTESIAN_POINT ( 'NONE',  ( 0.000000000000000000, 0.000000000000000000, 3.000000000000000000 ) ) ;
#183 = VERTEX_POINT ( 'NONE', #77 ) ;
#184 = VERTEX_POINT ( 'NONE', #150 ) ;
#185 = PLANE ( 'NONE',  #21 ) ;
#186 = VERTEX_POINT ( 'NONE', #33 ) ;
#187 = VECTOR ( 'NONE', #226, 1000.000000000000000 ) ;
#188 = EDGE_CURVE ( 'NONE', #84, #27, #171, .T. ) ;
#189 = LINE ( 'NONE', #97, #142 ) ;
#190 = ORIENTED_EDGE ( 'NONE', *, *, #160, .T. ) ;
#191 = FACE_OUTER_BOUND ( 'NONE', #87, .T. ) ;
#192 = DIRECTION ( 'NONE',  ( 0.000000000000000000, 0.000000000000000000, 1.000000000000000000 ) ) ;
#193 = LOCAL_TIME ( 19, 55, 31.00000000000000000, #110 ) ;
#194 = PERSON_AND_ORGANIZATION ( #168, #246 ) ;
#195 = DATE_TIME_ROLE ( 'classification_date' ) ;
#196 = PERSON_AND_ORGANIZATION ( #168, #246 ) ;
#197 = CC_DESIGN_PERSON_AND_ORGANIZATION_ASSIGNMENT ( #255, #132, ( #224 ) ) ;
#198 = AXIS2_PLACEMENT_3D ( 'NONE', #182, #242, #147 ) ;
#199 = FACE_OUTER_BOUND ( 'NONE', #67, .T. ) ;
#200 = PRODUCT_DEFINITION_SHAPE ( 'NONE', 'NONE',  #224 ) ;
#201 = DIRECTION ( 'NONE',  ( 0.000000000000000000, 0.000000000000000000, 1.000000000000000000 ) ) ;
#202 = ORIENTED_EDGE ( 'NONE', *, *, #63, .T. ) ;
#203 = ADVANCED_FACE ( 'NONE', ( #129, #54 ), #247, .T. ) ;
#204 = CARTESIAN_POINT ( 'NONE',  ( 0.000000000000000000, 0.000000000000000000, 0.000000000000000000 ) ) ;
#205 = EDGE_LOOP ( 'NONE', ( #8, #209 ) ) ;
#206 = CARTESIAN_POINT ( 'NONE',  ( -3.000000000000000444, 0.000000000000000000, 3.000000000000000000 ) ) ;
#207 = AXIS2_PLACEMENT_3D ( 'NONE', #104, #37, #109 ) ;
#208 = DIRECTION ( 'NONE',  ( 1.000000000000000000, 0.000000000000000000, 0.000000000000000000 ) ) ;
#209 = ORIENTED_EDGE ( 'NONE', *, *, #139, .T. ) ;
#210 = FACE_OUTER_BOUND ( 'NONE', #101, .T. ) ;
#211 = PERSON_AND_ORGANIZATION ( #168, #246 ) ;
#212 = CARTESIAN_POINT ( 'NONE',  ( 0.000000000000000000, 0.000000000000000000, 3.000000000000000000 ) ) ;
#213 = LOCAL_TIME ( 19, 55, 31.00000000000000000, #15 ) ;
#214 = SECURITY_CLASSIFICATION_LEVEL ( 'unclassified' ) ;
#215 = PRODUCT_RELATED_PRODUCT_CATEGORY ( 'detail', '', ( #117 ) ) ;
#216 = COORDINATED_UNIVERSAL_TIME_OFFSET ( 1, 0, .AHEAD. ) ;
#217 = SECURITY_CLASSIFICATION ( '', '', #214 ) ;
#218 = CIRCLE ( 'NONE', #1, 3.000000000000000444 ) ;
#219 = CIRCLE ( 'NONE', #102, 3.000000000000000444 ) ;
#220 = EDGE_CURVE ( 'NONE', #84, #164, #219, .T. ) ;
#221 = CARTESIAN_POINT ( 'NONE',  ( 0.000000000000000000, 0.000000000000000000, 103.0000000000000142 ) ) ;
#222 = ORIENTED_EDGE ( 'NONE', *, *, #14, .F. ) ;
#223 = CARTESIAN_POINT ( 'NONE',  ( 0.000000000000000000, 0.000000000000000000, 103.0000000000000142 ) ) ;
#224 = PRODUCT_DEFINITION ( 'NEZNÁMÝ', '', #40, #244 ) ;
#225 = DIRECTION ( 'NONE',  ( -0.000000000000000000, -0.000000000000000000, -1.000000000000000000 ) ) ;
#226 = DIRECTION ( 'NONE',  ( -0.000000000000000000, -0.000000000000000000, -1.000000000000000000 ) ) ;
#227 = FACE_OUTER_BOUND ( 'NONE', #205, .T. ) ;
#228 = ORIENTED_EDGE ( 'NONE', *, *, #63, .F. ) ;
#229 = LINE ( 'NONE', #170, #159 ) ;
#230 = APPROVAL_DATE_TIME ( #94, #134 ) ;
#231 = DIRECTION ( 'NONE',  ( -0.000000000000000000, -0.000000000000000000, -1.000000000000000000 ) ) ;
#232 = APPLICATION_PROTOCOL_DEFINITION ( 'international standard', 'config_control_design', 1994, #56 ) ;
#233 = APPROVAL_DATE_TIME ( #76, #62 ) ;
#234 = CC_DESIGN_PERSON_AND_ORGANIZATION_ASSIGNMENT ( #194, #91, ( #217 ) ) ;
#235 = PERSON_AND_ORGANIZATION_ROLE ( 'creator' ) ;
#236 = CALENDAR_DATE ( 2022, 7, 7 ) ;
#237 = DIRECTION ( 'NONE',  ( 0.000000000000000000, 0.000000000000000000, 1.000000000000000000 ) ) ;
#238 = ADVANCED_FACE ( 'NONE', ( #210 ), #58, .T. ) ;
#239 = CARTESIAN_POINT ( 'NONE',  ( 0.000000000000000000, 0.000000000000000000, 0.000000000000000000 ) ) ;
#240 = VERTEX_POINT ( 'NONE', #251 ) ;
#241 = AXIS2_PLACEMENT_3D ( 'NONE', #212, #88, #105 ) ;
#242 = DIRECTION ( 'NONE',  ( 0.000000000000000000, 0.000000000000000000, 1.000000000000000000 ) ) ;
#243 = ORIENTED_EDGE ( 'NONE', *, *, #30, .T. ) ;
#244 = DESIGN_CONTEXT ( 'detailed design', #56, 'design' ) ;
#245 = CARTESIAN_POINT ( 'NONE',  ( 3.000000000000000444, 3.673940397442060361E-16, 0.000000000000000000 ) ) ;
#246 = ORGANIZATION ( 'NEURÈENÝ', 'NEURÈENÝ', '' ) ;
#247 = PLANE ( 'NONE',  #241 ) ;
#248 = APPROVAL_ROLE ( '' ) ;
#249 = CYLINDRICAL_SURFACE ( 'NONE', #207, 1.600000000000000089 ) ;
#250 = CALENDAR_DATE ( 2022, 7, 7 ) ;
#251 = CARTESIAN_POINT ( 'NONE',  ( 1.600000000000000089, 1.959434878635765230E-16, 3.000000000000000000 ) ) ;
#252 = ADVANCED_FACE ( 'NONE', ( #191 ), #249, .T. ) ;
#253 = APPROVAL_STATUS ( 'not_yet_approved' ) ;
#254 = AXIS2_PLACEMENT_3D ( 'NONE', #12, #231, #169 ) ;
#255 = PERSON_AND_ORGANIZATION ( #168, #246 ) ;
ENDSEC;
END-ISO-10303-21;
