ISO-10303-21;
HEADER;
FILE_DESCRIPTION (( 'STEP AP203' ),
    '1' );
FILE_NAME ('c5f9.STEP',
    '2022-07-07T18:00:22',
    ( '' ),
    ( '' ),
    'SwSTEP 2.0',
    'SolidWorks 2019',
    '' );
FILE_SCHEMA (( 'CONFIG_CONTROL_DESIGN' ));
ENDSEC;

DATA;
#1 = CARTESIAN_POINT ( 'NONE',  ( 0.000000000000000000, 0.000000000000000000, 127.0000000000000000 ) ) ;
#2 = DATE_TIME_ROLE ( 'classification_date' ) ;
#3 = AXIS2_PLACEMENT_3D ( 'NONE', #113, #73, #50 ) ;
#4 = EDGE_CURVE ( 'NONE', #14, #31, #139, .T. ) ;
#5 = CIRCLE ( 'NONE', #153, 2.000000000000000000 ) ;
#6 = LINE ( 'NONE', #93, #122 ) ;
#7 = DESIGN_CONTEXT ( 'detailed design', #198, 'design' ) ;
#8 = CARTESIAN_POINT ( 'NONE',  ( 2.000000000000000000, 2.449293598294706414E-16, 0.000000000000000000 ) ) ;
#9 = ORIENTED_EDGE ( 'NONE', *, *, #33, .F. ) ;
#10 = DIRECTION ( 'NONE',  ( -1.000000000000000000, 0.000000000000000000, 0.000000000000000000 ) ) ;
#11 = EDGE_LOOP ( 'NONE', ( #194, #160 ) ) ;
#12 = CIRCLE ( 'NONE', #170, 1.100000000000000089 ) ;
#13 = CARTESIAN_POINT ( 'NONE',  ( -2.000000000000000000, 0.000000000000000000, 0.000000000000000000 ) ) ;
#14 = VERTEX_POINT ( 'NONE', #115 ) ;
#15 = ORIENTED_EDGE ( 'NONE', *, *, #250, .T. ) ;
#16 = EDGE_CURVE ( 'NONE', #133, #192, #197, .T. ) ;
#17 = APPROVAL_PERSON_ORGANIZATION ( #255, #146, #220 ) ;
#18 = CARTESIAN_POINT ( 'NONE',  ( 1.100000000000000089, 1.347111479062088503E-16, 127.0000000000000000 ) ) ;
#19 = PLANE ( 'NONE',  #182 ) ;
#20 = CC_DESIGN_DATE_AND_TIME_ASSIGNMENT ( #225, #2, ( #53 ) ) ;
#21 = DIRECTION ( 'NONE',  ( 1.000000000000000000, 0.000000000000000000, 0.000000000000000000 ) ) ;
#22 = CLOSED_SHELL ( 'NONE', ( #148, #224, #67, #64, #77, #185, #134 ) ) ;
#23 = DIRECTION ( 'NONE',  ( 0.000000000000000000, 0.000000000000000000, 1.000000000000000000 ) ) ;
#24 = APPROVAL_DATE_TIME ( #187, #195 ) ;
#25 = AXIS2_PLACEMENT_3D ( 'NONE', #237, #136, #37 ) ;
#26 = PERSON_AND_ORGANIZATION ( #243, #79 ) ;
#27 = CC_DESIGN_PERSON_AND_ORGANIZATION_ASSIGNMENT ( #49, #89, ( #74 ) ) ;
#28 =( NAMED_UNIT ( * ) SI_UNIT ( $, .STERADIAN. ) SOLID_ANGLE_UNIT ( ) );
#29 = AXIS2_PLACEMENT_3D ( 'NONE', #215, #199, #21 ) ;
#30 = AXIS2_PLACEMENT_3D ( 'NONE', #121, #108, #184 ) ;
#31 = VERTEX_POINT ( 'NONE', #42 ) ;
#32 = DATE_AND_TIME ( #233, #222 ) ;
#33 = EDGE_CURVE ( 'NONE', #51, #133, #174, .T. ) ;
#34 = EDGE_LOOP ( 'NONE', ( #131, #155 ) ) ;
#35 = APPROVAL_ROLE ( '' ) ;
#36 = ORIENTED_EDGE ( 'NONE', *, *, #137, .T. ) ;
#37 = DIRECTION ( 'NONE',  ( 1.000000000000000000, 0.000000000000000000, 0.000000000000000000 ) ) ;
#38 = ORIENTED_EDGE ( 'NONE', *, *, #92, .T. ) ;
#39 = AXIS2_PLACEMENT_3D ( 'NONE', #118, #105, #181 ) ;
#40 = FACE_OUTER_BOUND ( 'NONE', #129, .T. ) ;
#41 =( GEOMETRIC_REPRESENTATION_CONTEXT ( 3 ) GLOBAL_UNCERTAINTY_ASSIGNED_CONTEXT ( ( #71 ) ) GLOBAL_UNIT_ASSIGNED_CONTEXT ( ( #135, #97, #28 ) ) REPRESENTATION_CONTEXT ( 'NONE', 'WORKASPACE' ) );
#42 = CARTESIAN_POINT ( 'NONE',  ( 1.100000000000000089, 1.347111479062088503E-16, 2.000000000000000000 ) ) ;
#43 = CC_DESIGN_PERSON_AND_ORGANIZATION_ASSIGNMENT ( #191, #55, ( #90 ) ) ;
#44 = EDGE_CURVE ( 'NONE', #54, #14, #216, .T. ) ;
#45 = CARTESIAN_POINT ( 'NONE',  ( 0.000000000000000000, 0.000000000000000000, 2.000000000000000000 ) ) ;
#46 = PLANE ( 'NONE',  #47 ) ;
#47 = AXIS2_PLACEMENT_3D ( 'NONE', #123, #116, #138 ) ;
#48 = DIRECTION ( 'NONE',  ( 0.000000000000000000, 0.000000000000000000, 1.000000000000000000 ) ) ;
#49 = PERSON_AND_ORGANIZATION ( #243, #79 ) ;
#50 = DIRECTION ( 'NONE',  ( 1.000000000000000000, 0.000000000000000000, 0.000000000000000000 ) ) ;
#51 = VERTEX_POINT ( 'NONE', #200 ) ;
#52 = PERSON_AND_ORGANIZATION ( #243, #79 ) ;
#53 = SECURITY_CLASSIFICATION ( '', '', #65 ) ;
#54 = VERTEX_POINT ( 'NONE', #169 ) ;
#55 = PERSON_AND_ORGANIZATION_ROLE ( 'creator' ) ;
#56 = ORIENTED_EDGE ( 'NONE', *, *, #162, .F. ) ;
#57 = ORIENTED_EDGE ( 'NONE', *, *, #59, .F. ) ;
#58 = ORIENTED_EDGE ( 'NONE', *, *, #33, .T. ) ;
#59 = EDGE_CURVE ( 'NONE', #133, #51, #5, .T. ) ;
#60 = FACE_OUTER_BOUND ( 'NONE', #34, .T. ) ;
#61 = CC_DESIGN_SECURITY_CLASSIFICATION ( #53, ( #74 ) ) ;
#62 = FACE_OUTER_BOUND ( 'NONE', #11, .T. ) ;
#63 = DIRECTION ( 'NONE',  ( 1.000000000000000000, 0.000000000000000000, 0.000000000000000000 ) ) ;
#64 = ADVANCED_FACE ( 'NONE', ( #180, #40 ), #19, .T. ) ;
#65 = SECURITY_CLASSIFICATION_LEVEL ( 'unclassified' ) ;
#66 = DIRECTION ( 'NONE',  ( 0.000000000000000000, 0.000000000000000000, 1.000000000000000000 ) ) ;
#67 = ADVANCED_FACE ( 'NONE', ( #164 ), #119, .T. ) ;
#68 = PERSON_AND_ORGANIZATION ( #243, #79 ) ;
#69 = LOCAL_TIME ( 20, 0, 22.00000000000000000, #132 ) ;
#70 = DATE_AND_TIME ( #211, #69 ) ;
#71 = UNCERTAINTY_MEASURE_WITH_UNIT (LENGTH_MEASURE( 1.000000000000000082E-05 ), #135, 'distance_accuracy_value', 'NONE');
#72 = DIRECTION ( 'NONE',  ( -0.000000000000000000, -0.000000000000000000, -1.000000000000000000 ) ) ;
#73 = DIRECTION ( 'NONE',  ( 0.000000000000000000, 0.000000000000000000, 1.000000000000000000 ) ) ;
#74 = PRODUCT_DEFINITION_FORMATION_WITH_SPECIFIED_SOURCE ( 'LIBOVOLNÝ', '', #251, .NOT_KNOWN. ) ;
#75 = EDGE_LOOP ( 'NONE', ( #57, #100, #36, #214 ) ) ;
#76 = APPLICATION_PROTOCOL_DEFINITION ( 'international standard', 'config_control_design', 1994, #198 ) ;
#77 = ADVANCED_FACE ( 'NONE', ( #60 ), #46, .F. ) ;
#78 = EDGE_LOOP ( 'NONE', ( #114, #9, #15, #112 ) ) ;
#79 = ORGANIZATION ( 'NEURÈENÝ', 'NEURÈENÝ', '' ) ;
#80 = DIRECTION ( 'NONE',  ( 1.000000000000000000, 0.000000000000000000, 0.000000000000000000 ) ) ;
#81 = EDGE_CURVE ( 'NONE', #176, #192, #144, .T. ) ;
#82 = VECTOR ( 'NONE', #83, 1000.000000000000000 ) ;
#83 = DIRECTION ( 'NONE',  ( -0.000000000000000000, -0.000000000000000000, -1.000000000000000000 ) ) ;
#84 = AXIS2_PLACEMENT_3D ( 'NONE', #238, #66, #218 ) ;
#85 = DIRECTION ( 'NONE',  ( 0.000000000000000000, 0.000000000000000000, 1.000000000000000000 ) ) ;
#86 = APPROVAL_ROLE ( '' ) ;
#87 = DIRECTION ( 'NONE',  ( -0.000000000000000000, -0.000000000000000000, -1.000000000000000000 ) ) ;
#88 = CALENDAR_DATE ( 2022, 7, 7 ) ;
#89 = PERSON_AND_ORGANIZATION_ROLE ( 'design_supplier' ) ;
#90 = PRODUCT_DEFINITION ( 'NEZNÁMÝ', '', #74, #7 ) ;
#91 = SHAPE_DEFINITION_REPRESENTATION ( #96, #173 ) ;
#92 = EDGE_CURVE ( 'NONE', #245, #31, #106, .T. ) ;
#93 = CARTESIAN_POINT ( 'NONE',  ( -2.000000000000000000, 0.000000000000000000, 2.000000000000000000 ) ) ;
#94 = CIRCLE ( 'NONE', #217, 2.000000000000000000 ) ;
#95 = DIRECTION ( 'NONE',  ( -0.000000000000000000, -0.000000000000000000, -1.000000000000000000 ) ) ;
#96 = PRODUCT_DEFINITION_SHAPE ( 'NONE', 'NONE',  #90 ) ;
#97 =( NAMED_UNIT ( * ) PLANE_ANGLE_UNIT ( ) SI_UNIT ( $, .RADIAN. ) );
#98 = EDGE_LOOP ( 'NONE', ( #56, #38, #248, #212 ) ) ;
#99 = DIRECTION ( 'NONE',  ( -1.000000000000000000, 0.000000000000000000, 0.000000000000000000 ) ) ;
#100 = ORIENTED_EDGE ( 'NONE', *, *, #16, .T. ) ;
#101 = CARTESIAN_POINT ( 'NONE',  ( 2.000000000000000000, 2.449293598294706414E-16, 2.000000000000000000 ) ) ;
#102 = AXIS2_PLACEMENT_3D ( 'NONE', #228, #152, #99 ) ;
#103 = EDGE_CURVE ( 'NONE', #31, #14, #239, .T. ) ;
#104 = PLANE ( 'NONE',  #84 ) ;
#105 = DIRECTION ( 'NONE',  ( -0.000000000000000000, -0.000000000000000000, -1.000000000000000000 ) ) ;
#106 = LINE ( 'NONE', #18, #208 ) ;
#107 = EDGE_CURVE ( 'NONE', #54, #245, #12, .T. ) ;
#108 = DIRECTION ( 'NONE',  ( -0.000000000000000000, -0.000000000000000000, -1.000000000000000000 ) ) ;
#109 = PERSON_AND_ORGANIZATION_ROLE ( 'classification_officer' ) ;
#110 = ORIENTED_EDGE ( 'NONE', *, *, #92, .F. ) ;
#111 = APPROVAL_DATE_TIME ( #32, #178 ) ;
#112 = ORIENTED_EDGE ( 'NONE', *, *, #81, .T. ) ;
#113 = CARTESIAN_POINT ( 'NONE',  ( 0.000000000000000000, 0.000000000000000000, 0.000000000000000000 ) ) ;
#114 = ORIENTED_EDGE ( 'NONE', *, *, #16, .F. ) ;
#115 = CARTESIAN_POINT ( 'NONE',  ( -1.100000000000000089, 0.000000000000000000, 2.000000000000000000 ) ) ;
#116 = DIRECTION ( 'NONE',  ( 0.000000000000000000, 0.000000000000000000, 1.000000000000000000 ) ) ;
#117 = APPROVAL_PERSON_ORGANIZATION ( #130, #178, #35 ) ;
#118 = CARTESIAN_POINT ( 'NONE',  ( 0.000000000000000000, 0.000000000000000000, 2.000000000000000000 ) ) ;
#119 = CYLINDRICAL_SURFACE ( 'NONE', #39, 2.000000000000000000 ) ;
#120 = VECTOR ( 'NONE', #87, 1000.000000000000000 ) ;
#121 = CARTESIAN_POINT ( 'NONE',  ( 0.000000000000000000, 0.000000000000000000, 127.0000000000000000 ) ) ;
#122 = VECTOR ( 'NONE', #95, 1000.000000000000000 ) ;
#123 = CARTESIAN_POINT ( 'NONE',  ( 0.000000000000000000, 0.000000000000000000, 0.000000000000000000 ) ) ;
#124 = APPROVAL_STATUS ( 'not_yet_approved' ) ;
#125 = AXIS2_PLACEMENT_3D ( 'NONE', #166, #201, #63 ) ;
#126 = PERSON_AND_ORGANIZATION ( #243, #79 ) ;
#127 = FACE_OUTER_BOUND ( 'NONE', #75, .T. ) ;
#128 = CARTESIAN_POINT ( 'NONE',  ( 1.100000000000000089, 1.347111479062088503E-16, 127.0000000000000000 ) ) ;
#129 = EDGE_LOOP ( 'NONE', ( #58, #231 ) ) ;
#130 = PERSON_AND_ORGANIZATION ( #243, #79 ) ;
#131 = ORIENTED_EDGE ( 'NONE', *, *, #81, .F. ) ;
#132 = COORDINATED_UNIVERSAL_TIME_OFFSET ( 1, 0, .AHEAD. ) ;
#133 = VERTEX_POINT ( 'NONE', #253 ) ;
#134 = ADVANCED_FACE ( 'NONE', ( #62 ), #104, .T. ) ;
#135 =( LENGTH_UNIT ( ) NAMED_UNIT ( * ) SI_UNIT ( .MILLI., .METRE. ) );
#136 = DIRECTION ( 'NONE',  ( 0.000000000000000000, 0.000000000000000000, 1.000000000000000000 ) ) ;
#137 = EDGE_CURVE ( 'NONE', #192, #176, #94, .T. ) ;
#138 = DIRECTION ( 'NONE',  ( 1.000000000000000000, 0.000000000000000000, -0.000000000000000000 ) ) ;
#139 = CIRCLE ( 'NONE', #25, 1.100000000000000089 ) ;
#140 = DIRECTION ( 'NONE',  ( 0.000000000000000000, 0.000000000000000000, 1.000000000000000000 ) ) ;
#141 = CC_DESIGN_APPROVAL ( #195, ( #53 ) ) ;
#142 = CARTESIAN_POINT ( 'NONE',  ( 0.000000000000000000, 0.000000000000000000, 2.000000000000000000 ) ) ;
#143 = FACE_OUTER_BOUND ( 'NONE', #98, .T. ) ;
#144 = CIRCLE ( 'NONE', #29, 2.000000000000000000 ) ;
#145 = DIRECTION ( 'NONE',  ( 1.000000000000000000, 0.000000000000000000, 0.000000000000000000 ) ) ;
#146 = APPROVAL ( #124, 'NEURÈENÝ' ) ;
#147 = COORDINATED_UNIVERSAL_TIME_OFFSET ( 1, 0, .AHEAD. ) ;
#148 = ADVANCED_FACE ( 'NONE', ( #143 ), #219, .T. ) ;
#149 = COORDINATED_UNIVERSAL_TIME_OFFSET ( 1, 0, .AHEAD. ) ;
#150 = PRODUCT_RELATED_PRODUCT_CATEGORY ( 'detail', '', ( #251 ) ) ;
#151 = AXIS2_PLACEMENT_3D ( 'NONE', #159, #72, #10 ) ;
#152 = DIRECTION ( 'NONE',  ( -0.000000000000000000, -0.000000000000000000, -1.000000000000000000 ) ) ;
#153 = AXIS2_PLACEMENT_3D ( 'NONE', #167, #252, #145 ) ;
#154 = CC_DESIGN_PERSON_AND_ORGANIZATION_ASSIGNMENT ( #126, #109, ( #53 ) ) ;
#155 = ORIENTED_EDGE ( 'NONE', *, *, #137, .F. ) ;
#156 = APPROVAL_STATUS ( 'not_yet_approved' ) ;
#157 = CIRCLE ( 'NONE', #223, 1.100000000000000089 ) ;
#158 = ORIENTED_EDGE ( 'NONE', *, *, #107, .F. ) ;
#159 = CARTESIAN_POINT ( 'NONE',  ( 0.000000000000000000, 0.000000000000000000, 127.0000000000000000 ) ) ;
#160 = ORIENTED_EDGE ( 'NONE', *, *, #162, .T. ) ;
#161 = ORIENTED_EDGE ( 'NONE', *, *, #4, .T. ) ;
#162 = EDGE_CURVE ( 'NONE', #245, #54, #157, .T. ) ;
#163 = MANIFOLD_SOLID_BREP ( 'Pøidat vysunutím3', #22 ) ;
#164 = FACE_OUTER_BOUND ( 'NONE', #78, .T. ) ;
#165 = APPLICATION_CONTEXT ( 'configuration controlled 3d designs of mechanical parts and assemblies' ) ;
#166 = CARTESIAN_POINT ( 'NONE',  ( 0.000000000000000000, 0.000000000000000000, 2.000000000000000000 ) ) ;
#167 = CARTESIAN_POINT ( 'NONE',  ( 0.000000000000000000, 0.000000000000000000, 2.000000000000000000 ) ) ;
#168 = APPROVAL_STATUS ( 'not_yet_approved' ) ;
#169 = CARTESIAN_POINT ( 'NONE',  ( -1.100000000000000089, 0.000000000000000000, 127.0000000000000000 ) ) ;
#170 = AXIS2_PLACEMENT_3D ( 'NONE', #254, #85, #80 ) ;
#171 = CALENDAR_DATE ( 2022, 7, 7 ) ;
#172 = LOCAL_TIME ( 20, 0, 22.00000000000000000, #149 ) ;
#173 = ADVANCED_BREP_SHAPE_REPRESENTATION ( 'c5f9', ( #163, #3 ), #41 ) ;
#174 = CIRCLE ( 'NONE', #205, 2.000000000000000000 ) ;
#175 = CYLINDRICAL_SURFACE ( 'NONE', #151, 1.100000000000000089 ) ;
#176 = VERTEX_POINT ( 'NONE', #13 ) ;
#177 = ORIENTED_EDGE ( 'NONE', *, *, #103, .F. ) ;
#178 = APPROVAL ( #156, 'NEURÈENÝ' ) ;
#179 = CC_DESIGN_APPROVAL ( #178, ( #90 ) ) ;
#180 = FACE_BOUND ( 'NONE', #236, .T. ) ;
#181 = DIRECTION ( 'NONE',  ( -1.000000000000000000, 0.000000000000000000, 0.000000000000000000 ) ) ;
#182 = AXIS2_PLACEMENT_3D ( 'NONE', #142, #23, #242 ) ;
#183 = CARTESIAN_POINT ( 'NONE',  ( -1.100000000000000089, 0.000000000000000000, 127.0000000000000000 ) ) ;
#184 = DIRECTION ( 'NONE',  ( -1.000000000000000000, 0.000000000000000000, 0.000000000000000000 ) ) ;
#185 = ADVANCED_FACE ( 'NONE', ( #193 ), #175, .T. ) ;
#186 = DATE_AND_TIME ( #226, #172 ) ;
#187 = DATE_AND_TIME ( #88, #196 ) ;
#188 = DATE_TIME_ROLE ( 'creation_date' ) ;
#189 = CYLINDRICAL_SURFACE ( 'NONE', #102, 2.000000000000000000 ) ;
#190 = ORIENTED_EDGE ( 'NONE', *, *, #44, .T. ) ;
#191 = PERSON_AND_ORGANIZATION ( #243, #79 ) ;
#192 = VERTEX_POINT ( 'NONE', #8 ) ;
#193 = FACE_OUTER_BOUND ( 'NONE', #209, .T. ) ;
#194 = ORIENTED_EDGE ( 'NONE', *, *, #107, .T. ) ;
#195 = APPROVAL ( #168, 'NEURÈENÝ' ) ;
#196 = LOCAL_TIME ( 20, 0, 22.00000000000000000, #204 ) ;
#197 = LINE ( 'NONE', #101, #82 ) ;
#198 = APPLICATION_CONTEXT ( 'configuration controlled 3d designs of mechanical parts and assemblies' ) ;
#199 = DIRECTION ( 'NONE',  ( 0.000000000000000000, 0.000000000000000000, 1.000000000000000000 ) ) ;
#200 = CARTESIAN_POINT ( 'NONE',  ( -2.000000000000000000, 0.000000000000000000, 2.000000000000000000 ) ) ;
#201 = DIRECTION ( 'NONE',  ( 0.000000000000000000, 0.000000000000000000, 1.000000000000000000 ) ) ;
#202 = CARTESIAN_POINT ( 'NONE',  ( 0.000000000000000000, 0.000000000000000000, 0.000000000000000000 ) ) ;
#203 = PERSON_AND_ORGANIZATION_ROLE ( 'creator' ) ;
#204 = COORDINATED_UNIVERSAL_TIME_OFFSET ( 1, 0, .AHEAD. ) ;
#205 = AXIS2_PLACEMENT_3D ( 'NONE', #45, #48, #221 ) ;
#206 = APPROVAL_DATE_TIME ( #186, #146 ) ;
#207 = CC_DESIGN_DATE_AND_TIME_ASSIGNMENT ( #70, #188, ( #90 ) ) ;
#208 = VECTOR ( 'NONE', #240, 1000.000000000000000 ) ;
#209 = EDGE_LOOP ( 'NONE', ( #110, #158, #190, #161 ) ) ;
#210 = COORDINATED_UNIVERSAL_TIME_OFFSET ( 1, 0, .AHEAD. ) ;
#211 = CALENDAR_DATE ( 2022, 7, 7 ) ;
#212 = ORIENTED_EDGE ( 'NONE', *, *, #44, .F. ) ;
#213 = APPROVAL_PERSON_ORGANIZATION ( #68, #195, #86 ) ;
#214 = ORIENTED_EDGE ( 'NONE', *, *, #250, .F. ) ;
#215 = CARTESIAN_POINT ( 'NONE',  ( 0.000000000000000000, 0.000000000000000000, 0.000000000000000000 ) ) ;
#216 = LINE ( 'NONE', #183, #120 ) ;
#217 = AXIS2_PLACEMENT_3D ( 'NONE', #202, #140, #241 ) ;
#218 = DIRECTION ( 'NONE',  ( 1.000000000000000000, 0.000000000000000000, -0.000000000000000000 ) ) ;
#219 = CYLINDRICAL_SURFACE ( 'NONE', #30, 1.100000000000000089 ) ;
#220 = APPROVAL_ROLE ( '' ) ;
#221 = DIRECTION ( 'NONE',  ( 1.000000000000000000, 0.000000000000000000, 0.000000000000000000 ) ) ;
#222 = LOCAL_TIME ( 20, 0, 22.00000000000000000, #210 ) ;
#223 = AXIS2_PLACEMENT_3D ( 'NONE', #1, #235, #244 ) ;
#224 = ADVANCED_FACE ( 'NONE', ( #127 ), #189, .T. ) ;
#225 = DATE_AND_TIME ( #171, #232 ) ;
#226 = CALENDAR_DATE ( 2022, 7, 7 ) ;
#227 = MECHANICAL_CONTEXT ( 'NONE', #165, 'mechanical' ) ;
#228 = CARTESIAN_POINT ( 'NONE',  ( 0.000000000000000000, 0.000000000000000000, 2.000000000000000000 ) ) ;
#229 = APPLICATION_PROTOCOL_DEFINITION ( 'international standard', 'config_control_design', 1994, #165 ) ;
#230 = CC_DESIGN_PERSON_AND_ORGANIZATION_ASSIGNMENT ( #26, #203, ( #74 ) ) ;
#231 = ORIENTED_EDGE ( 'NONE', *, *, #59, .T. ) ;
#232 = LOCAL_TIME ( 20, 0, 22.00000000000000000, #147 ) ;
#233 = CALENDAR_DATE ( 2022, 7, 7 ) ;
#234 = ORIENTED_EDGE ( 'NONE', *, *, #4, .F. ) ;
#235 = DIRECTION ( 'NONE',  ( 0.000000000000000000, 0.000000000000000000, 1.000000000000000000 ) ) ;
#236 = EDGE_LOOP ( 'NONE', ( #234, #177 ) ) ;
#237 = CARTESIAN_POINT ( 'NONE',  ( 0.000000000000000000, 0.000000000000000000, 2.000000000000000000 ) ) ;
#238 = CARTESIAN_POINT ( 'NONE',  ( 0.000000000000000000, 0.000000000000000000, 127.0000000000000000 ) ) ;
#239 = CIRCLE ( 'NONE', #125, 1.100000000000000089 ) ;
#240 = DIRECTION ( 'NONE',  ( -0.000000000000000000, -0.000000000000000000, -1.000000000000000000 ) ) ;
#241 = DIRECTION ( 'NONE',  ( 1.000000000000000000, 0.000000000000000000, 0.000000000000000000 ) ) ;
#242 = DIRECTION ( 'NONE',  ( 1.000000000000000000, 0.000000000000000000, -0.000000000000000000 ) ) ;
#243 = PERSON ( 'NEURÈENÝ', 'NEURÈENÝ', 'NEURÈENÝ', ('NEURÈENÝ'), ('NEURÈENÝ'), ('NEURÈENÝ') ) ;
#244 = DIRECTION ( 'NONE',  ( 1.000000000000000000, 0.000000000000000000, 0.000000000000000000 ) ) ;
#245 = VERTEX_POINT ( 'NONE', #128 ) ;
#246 = CC_DESIGN_APPROVAL ( #146, ( #74 ) ) ;
#247 = PERSON_AND_ORGANIZATION_ROLE ( 'design_owner' ) ;
#248 = ORIENTED_EDGE ( 'NONE', *, *, #103, .T. ) ;
#249 = CC_DESIGN_PERSON_AND_ORGANIZATION_ASSIGNMENT ( #52, #247, ( #251 ) ) ;
#250 = EDGE_CURVE ( 'NONE', #51, #176, #6, .T. ) ;
#251 = PRODUCT ( 'c5f9', 'c5f9', '', ( #227 ) ) ;
#252 = DIRECTION ( 'NONE',  ( 0.000000000000000000, 0.000000000000000000, 1.000000000000000000 ) ) ;
#253 = CARTESIAN_POINT ( 'NONE',  ( 2.000000000000000000, 2.449293598294706414E-16, 2.000000000000000000 ) ) ;
#254 = CARTESIAN_POINT ( 'NONE',  ( 0.000000000000000000, 0.000000000000000000, 127.0000000000000000 ) ) ;
#255 = PERSON_AND_ORGANIZATION ( #243, #79 ) ;
ENDSEC;
END-ISO-10303-21;
