ISO-10303-21;
HEADER;
FILE_DESCRIPTION (( 'STEP AP203' ),
    '1' );
FILE_NAME ('361f.STEP',
    '2022-07-07T17:18:00',
    ( '' ),
    ( '' ),
    'SwSTEP 2.0',
    'SolidWorks 2019',
    '' );
FILE_SCHEMA (( 'CONFIG_CONTROL_DESIGN' ));
ENDSEC;

DATA;
#1 = SHAPE_DEFINITION_REPRESENTATION ( #208, #215 ) ;
#2 = DIRECTION ( 'NONE',  ( 0.000000000000000000, 0.000000000000000000, 1.000000000000000000 ) ) ;
#3 = ORIENTED_EDGE ( 'NONE', *, *, #219, .F. ) ;
#4 = PERSON_AND_ORGANIZATION_ROLE ( 'creator' ) ;
#5 = COORDINATED_UNIVERSAL_TIME_OFFSET ( 1, 0, .AHEAD. ) ;
#6 = ORIENTED_EDGE ( 'NONE', *, *, #10, .T. ) ;
#7 = COORDINATED_UNIVERSAL_TIME_OFFSET ( 1, 0, .AHEAD. ) ;
#8 = ORIENTED_EDGE ( 'NONE', *, *, #127, .T. ) ;
#9 = CALENDAR_DATE ( 2022, 7, 7 ) ;
#10 = EDGE_CURVE ( 'NONE', #157, #154, #238, .T. ) ;
#11 = VECTOR ( 'NONE', #247, 1000.000000000000000 ) ;
#12 = DIRECTION ( 'NONE',  ( -1.000000000000000000, 0.000000000000000000, 0.000000000000000000 ) ) ;
#13 = DIRECTION ( 'NONE',  ( -0.000000000000000000, -0.000000000000000000, -1.000000000000000000 ) ) ;
#14 = CC_DESIGN_PERSON_AND_ORGANIZATION_ASSIGNMENT ( #158, #4, ( #209 ) ) ;
#15 = FACE_OUTER_BOUND ( 'NONE', #101, .T. ) ;
#16 = EDGE_CURVE ( 'NONE', #122, #154, #211, .T. ) ;
#17 = CARTESIAN_POINT ( 'NONE',  ( 0.000000000000000000, 0.000000000000000000, 0.000000000000000000 ) ) ;
#18 = DATE_AND_TIME ( #9, #170 ) ;
#19 = EDGE_LOOP ( 'NONE', ( #139, #197 ) ) ;
#20 = DIRECTION ( 'NONE',  ( 1.000000000000000000, 0.000000000000000000, 0.000000000000000000 ) ) ;
#21 = ORIENTED_EDGE ( 'NONE', *, *, #16, .T. ) ;
#22 = PERSON_AND_ORGANIZATION ( #67, #72 ) ;
#23 = LOCAL_TIME ( 19, 18, 0.000000000000000000, #221 ) ;
#24 = APPLICATION_PROTOCOL_DEFINITION ( 'international standard', 'config_control_design', 1994, #75 ) ;
#25 = ORIENTED_EDGE ( 'NONE', *, *, #151, .F. ) ;
#26 = APPROVAL_STATUS ( 'not_yet_approved' ) ;
#27 = ORIENTED_EDGE ( 'NONE', *, *, #143, .T. ) ;
#28 = AXIS2_PLACEMENT_3D ( 'NONE', #214, #51, #148 ) ;
#29 = CARTESIAN_POINT ( 'NONE',  ( 0.000000000000000000, 0.000000000000000000, 322.0000000000000000 ) ) ;
#30 = CARTESIAN_POINT ( 'NONE',  ( 6.250000000000000000, 7.654042494670957606E-16, 322.0000000000000000 ) ) ;
#31 = DIRECTION ( 'NONE',  ( -0.000000000000000000, -0.000000000000000000, -1.000000000000000000 ) ) ;
#32 = DIRECTION ( 'NONE',  ( 0.000000000000000000, 0.000000000000000000, 1.000000000000000000 ) ) ;
#33 = LOCAL_TIME ( 19, 18, 0.000000000000000000, #7 ) ;
#34 = CARTESIAN_POINT ( 'NONE',  ( -9.000000000000000000, 0.000000000000000000, 7.000000000000000000 ) ) ;
#35 = ORIENTED_EDGE ( 'NONE', *, *, #255, .T. ) ;
#36 = EDGE_LOOP ( 'NONE', ( #25, #226, #99, #85 ) ) ;
#37 = PERSON_AND_ORGANIZATION ( #67, #72 ) ;
#38 = DIRECTION ( 'NONE',  ( -0.000000000000000000, -0.000000000000000000, -1.000000000000000000 ) ) ;
#39 = APPROVAL ( #153, 'NEURÈENÝ' ) ;
#40 = CARTESIAN_POINT ( 'NONE',  ( 0.000000000000000000, 0.000000000000000000, 7.000000000000000000 ) ) ;
#41 = EDGE_LOOP ( 'NONE', ( #125, #82, #35, #8 ) ) ;
#42 = ADVANCED_FACE ( 'NONE', ( #60 ), #135, .T. ) ;
#43 = VECTOR ( 'NONE', #184, 1000.000000000000000 ) ;
#44 = ADVANCED_FACE ( 'NONE', ( #223 ), #199, .T. ) ;
#45 = LOCAL_TIME ( 19, 18, 0.000000000000000000, #5 ) ;
#46 = AXIS2_PLACEMENT_3D ( 'NONE', #138, #38, #123 ) ;
#47 = PRODUCT_RELATED_PRODUCT_CATEGORY ( 'detail', '', ( #185 ) ) ;
#48 = CARTESIAN_POINT ( 'NONE',  ( 0.000000000000000000, 0.000000000000000000, 322.0000000000000000 ) ) ;
#49 =( GEOMETRIC_REPRESENTATION_CONTEXT ( 3 ) GLOBAL_UNCERTAINTY_ASSIGNED_CONTEXT ( ( #172 ) ) GLOBAL_UNIT_ASSIGNED_CONTEXT ( ( #126, #156, #100 ) ) REPRESENTATION_CONTEXT ( 'NONE', 'WORKASPACE' ) );
#50 = DIRECTION ( 'NONE',  ( 1.000000000000000000, 0.000000000000000000, 0.000000000000000000 ) ) ;
#51 = DIRECTION ( 'NONE',  ( -0.000000000000000000, -0.000000000000000000, -1.000000000000000000 ) ) ;
#52 = DIRECTION ( 'NONE',  ( -0.000000000000000000, -0.000000000000000000, -1.000000000000000000 ) ) ;
#53 = CIRCLE ( 'NONE', #246, 9.000000000000000000 ) ;
#54 = VERTEX_POINT ( 'NONE', #30 ) ;
#55 = SECURITY_CLASSIFICATION_LEVEL ( 'unclassified' ) ;
#56 = DIRECTION ( 'NONE',  ( -0.000000000000000000, -0.000000000000000000, -1.000000000000000000 ) ) ;
#57 = CARTESIAN_POINT ( 'NONE',  ( 0.000000000000000000, 0.000000000000000000, 0.000000000000000000 ) ) ;
#58 = PERSON_AND_ORGANIZATION_ROLE ( 'design_supplier' ) ;
#59 = CARTESIAN_POINT ( 'NONE',  ( 0.000000000000000000, 0.000000000000000000, 7.000000000000000000 ) ) ;
#60 = FACE_OUTER_BOUND ( 'NONE', #220, .T. ) ;
#61 = APPROVAL ( #26, 'NEURÈENÝ' ) ;
#62 = AXIS2_PLACEMENT_3D ( 'NONE', #59, #202, #200 ) ;
#63 = COORDINATED_UNIVERSAL_TIME_OFFSET ( 1, 0, .AHEAD. ) ;
#64 = VERTEX_POINT ( 'NONE', #90 ) ;
#65 = ADVANCED_FACE ( 'NONE', ( #216 ), #111, .T. ) ;
#66 = DIRECTION ( 'NONE',  ( 0.000000000000000000, 0.000000000000000000, 1.000000000000000000 ) ) ;
#67 = PERSON ( 'NEURÈENÝ', 'NEURÈENÝ', 'NEURÈENÝ', ('NEURÈENÝ'), ('NEURÈENÝ'), ('NEURÈENÝ') ) ;
#68 = CIRCLE ( 'NONE', #161, 6.250000000000000000 ) ;
#69 = AXIS2_PLACEMENT_3D ( 'NONE', #234, #146, #231 ) ;
#70 = PLANE ( 'NONE',  #69 ) ;
#71 = DIRECTION ( 'NONE',  ( 1.000000000000000000, 0.000000000000000000, -0.000000000000000000 ) ) ;
#72 = ORGANIZATION ( 'NEURÈENÝ', 'NEURÈENÝ', '' ) ;
#73 = CARTESIAN_POINT ( 'NONE',  ( 0.000000000000000000, 0.000000000000000000, 7.000000000000000000 ) ) ;
#74 = PLANE ( 'NONE',  #206 ) ;
#75 = APPLICATION_CONTEXT ( 'configuration controlled 3d designs of mechanical parts and assemblies' ) ;
#76 = DATE_TIME_ROLE ( 'classification_date' ) ;
#77 = ORIENTED_EDGE ( 'NONE', *, *, #245, .F. ) ;
#78 = EDGE_CURVE ( 'NONE', #79, #64, #167, .T. ) ;
#79 = VERTEX_POINT ( 'NONE', #93 ) ;
#80 = PERSON_AND_ORGANIZATION ( #67, #72 ) ;
#81 = PERSON_AND_ORGANIZATION ( #67, #72 ) ;
#82 = ORIENTED_EDGE ( 'NONE', *, *, #110, .F. ) ;
#83 = AXIS2_PLACEMENT_3D ( 'NONE', #132, #32, #173 ) ;
#84 = CALENDAR_DATE ( 2022, 7, 7 ) ;
#85 = ORIENTED_EDGE ( 'NONE', *, *, #255, .F. ) ;
#86 = SECURITY_CLASSIFICATION ( '', '', #55 ) ;
#87 = DIRECTION ( 'NONE',  ( 1.000000000000000000, 0.000000000000000000, -0.000000000000000000 ) ) ;
#88 = CLOSED_SHELL ( 'NONE', ( #65, #42, #44, #210, #165, #168, #149 ) ) ;
#89 = EDGE_CURVE ( 'NONE', #154, #122, #144, .T. ) ;
#90 = CARTESIAN_POINT ( 'NONE',  ( -6.250000000000000000, 0.000000000000000000, 7.000000000000000000 ) ) ;
#91 = PLANE ( 'NONE',  #176 ) ;
#92 = VECTOR ( 'NONE', #31, 1000.000000000000000 ) ;
#93 = CARTESIAN_POINT ( 'NONE',  ( 6.250000000000000000, 7.654042494670957606E-16, 7.000000000000000000 ) ) ;
#94 = CC_DESIGN_APPROVAL ( #187, ( #209 ) ) ;
#95 = CARTESIAN_POINT ( 'NONE',  ( 0.000000000000000000, 0.000000000000000000, 7.000000000000000000 ) ) ;
#96 = PERSON_AND_ORGANIZATION_ROLE ( 'classification_officer' ) ;
#97 = DESIGN_CONTEXT ( 'detailed design', #252, 'design' ) ;
#98 = EDGE_CURVE ( 'NONE', #54, #79, #169, .T. ) ;
#99 = ORIENTED_EDGE ( 'NONE', *, *, #78, .T. ) ;
#100 =( NAMED_UNIT ( * ) SI_UNIT ( $, .STERADIAN. ) SOLID_ANGLE_UNIT ( ) );
#101 = EDGE_LOOP ( 'NONE', ( #160, #179 ) ) ;
#102 = MANIFOLD_SOLID_BREP ( 'Pøidat vysunutím3', #88 ) ;
#103 = MECHANICAL_CONTEXT ( 'NONE', #75, 'mechanical' ) ;
#104 = VERTEX_POINT ( 'NONE', #34 ) ;
#105 = EDGE_LOOP ( 'NONE', ( #203, #3, #27, #21 ) ) ;
#106 = APPROVAL_DATE_TIME ( #196, #61 ) ;
#107 = CARTESIAN_POINT ( 'NONE',  ( 9.000000000000000000, 1.102182119232617714E-15, 7.000000000000000000 ) ) ;
#108 = LOCAL_TIME ( 19, 18, 0.000000000000000000, #162 ) ;
#109 = DIRECTION ( 'NONE',  ( 0.000000000000000000, 0.000000000000000000, 1.000000000000000000 ) ) ;
#110 = EDGE_CURVE ( 'NONE', #201, #54, #240, .T. ) ;
#111 = CYLINDRICAL_SURFACE ( 'NONE', #189, 6.250000000000000000 ) ;
#112 = DIRECTION ( 'NONE',  ( 1.000000000000000000, 0.000000000000000000, 0.000000000000000000 ) ) ;
#113 = CARTESIAN_POINT ( 'NONE',  ( -6.250000000000000000, 0.000000000000000000, 322.0000000000000000 ) ) ;
#114 = CC_DESIGN_PERSON_AND_ORGANIZATION_ASSIGNMENT ( #81, #159, ( #142 ) ) ;
#115 = CYLINDRICAL_SURFACE ( 'NONE', #28, 6.250000000000000000 ) ;
#116 = APPROVAL_PERSON_ORGANIZATION ( #37, #187, #242 ) ;
#117 = DATE_AND_TIME ( #195, #23 ) ;
#118 = LINE ( 'NONE', #192, #11 ) ;
#119 = ORIENTED_EDGE ( 'NONE', *, *, #89, .T. ) ;
#120 = AXIS2_PLACEMENT_3D ( 'NONE', #57, #194, #174 ) ;
#121 = DIRECTION ( 'NONE',  ( 1.000000000000000000, 0.000000000000000000, 0.000000000000000000 ) ) ;
#122 = VERTEX_POINT ( 'NONE', #131 ) ;
#123 = DIRECTION ( 'NONE',  ( -1.000000000000000000, 0.000000000000000000, 0.000000000000000000 ) ) ;
#124 = PERSON_AND_ORGANIZATION ( #67, #72 ) ;
#125 = ORIENTED_EDGE ( 'NONE', *, *, #98, .F. ) ;
#126 =( LENGTH_UNIT ( ) NAMED_UNIT ( * ) SI_UNIT ( .MILLI., .METRE. ) );
#127 = EDGE_CURVE ( 'NONE', #64, #79, #68, .T. ) ;
#128 = DIRECTION ( 'NONE',  ( 0.000000000000000000, 0.000000000000000000, 1.000000000000000000 ) ) ;
#129 = DIRECTION ( 'NONE',  ( -1.000000000000000000, 0.000000000000000000, 0.000000000000000000 ) ) ;
#130 = CC_DESIGN_DATE_AND_TIME_ASSIGNMENT ( #117, #76, ( #86 ) ) ;
#131 = CARTESIAN_POINT ( 'NONE',  ( -9.000000000000000000, 0.000000000000000000, 0.000000000000000000 ) ) ;
#132 = CARTESIAN_POINT ( 'NONE',  ( 0.000000000000000000, 0.000000000000000000, 7.000000000000000000 ) ) ;
#133 = ORIENTED_EDGE ( 'NONE', *, *, #78, .F. ) ;
#134 = APPROVAL_ROLE ( '' ) ;
#135 = CYLINDRICAL_SURFACE ( 'NONE', #46, 9.000000000000000000 ) ;
#136 = AXIS2_PLACEMENT_3D ( 'NONE', #193, #13, #12 ) ;
#137 = DATE_AND_TIME ( #239, #108 ) ;
#138 = CARTESIAN_POINT ( 'NONE',  ( 0.000000000000000000, 0.000000000000000000, 7.000000000000000000 ) ) ;
#139 = ORIENTED_EDGE ( 'NONE', *, *, #110, .T. ) ;
#140 = CC_DESIGN_PERSON_AND_ORGANIZATION_ASSIGNMENT ( #80, #58, ( #209 ) ) ;
#141 = PERSON_AND_ORGANIZATION_ROLE ( 'design_owner' ) ;
#142 = PRODUCT_DEFINITION ( 'NEZNÁMÝ', '', #209, #97 ) ;
#143 = EDGE_CURVE ( 'NONE', #104, #122, #118, .T. ) ;
#144 = CIRCLE ( 'NONE', #207, 9.000000000000000000 ) ;
#145 = APPROVAL_PERSON_ORGANIZATION ( #22, #39, #134 ) ;
#146 = DIRECTION ( 'NONE',  ( 0.000000000000000000, 0.000000000000000000, 1.000000000000000000 ) ) ;
#147 = CIRCLE ( 'NONE', #62, 9.000000000000000000 ) ;
#148 = DIRECTION ( 'NONE',  ( -1.000000000000000000, 0.000000000000000000, 0.000000000000000000 ) ) ;
#149 = ADVANCED_FACE ( 'NONE', ( #212 ), #70, .T. ) ;
#150 = FACE_OUTER_BOUND ( 'NONE', #41, .T. ) ;
#151 = EDGE_CURVE ( 'NONE', #54, #201, #205, .T. ) ;
#152 = DIRECTION ( 'NONE',  ( 0.000000000000000000, 0.000000000000000000, 1.000000000000000000 ) ) ;
#153 = APPROVAL_STATUS ( 'not_yet_approved' ) ;
#154 = VERTEX_POINT ( 'NONE', #253 ) ;
#155 = APPROVAL_DATE_TIME ( #18, #187 ) ;
#156 =( NAMED_UNIT ( * ) PLANE_ANGLE_UNIT ( ) SI_UNIT ( $, .RADIAN. ) );
#157 = VERTEX_POINT ( 'NONE', #188 ) ;
#158 = PERSON_AND_ORGANIZATION ( #67, #72 ) ;
#159 = PERSON_AND_ORGANIZATION_ROLE ( 'creator' ) ;
#160 = ORIENTED_EDGE ( 'NONE', *, *, #219, .T. ) ;
#161 = AXIS2_PLACEMENT_3D ( 'NONE', #95, #218, #186 ) ;
#162 = COORDINATED_UNIVERSAL_TIME_OFFSET ( 1, 0, .AHEAD. ) ;
#163 = EDGE_LOOP ( 'NONE', ( #237, #254 ) ) ;
#164 = CC_DESIGN_SECURITY_CLASSIFICATION ( #86, ( #209 ) ) ;
#165 = ADVANCED_FACE ( 'NONE', ( #171 ), #91, .F. ) ;
#166 = CARTESIAN_POINT ( 'NONE',  ( 6.250000000000000000, 7.654042494670957606E-16, 322.0000000000000000 ) ) ;
#167 = CIRCLE ( 'NONE', #83, 6.250000000000000000 ) ;
#168 = ADVANCED_FACE ( 'NONE', ( #150 ), #115, .T. ) ;
#169 = LINE ( 'NONE', #166, #92 ) ;
#170 = LOCAL_TIME ( 19, 18, 0.000000000000000000, #63 ) ;
#171 = FACE_OUTER_BOUND ( 'NONE', #163, .T. ) ;
#172 = UNCERTAINTY_MEASURE_WITH_UNIT (LENGTH_MEASURE( 1.000000000000000082E-05 ), #126, 'distance_accuracy_value', 'NONE');
#173 = DIRECTION ( 'NONE',  ( 1.000000000000000000, 0.000000000000000000, 0.000000000000000000 ) ) ;
#174 = DIRECTION ( 'NONE',  ( 1.000000000000000000, 0.000000000000000000, 0.000000000000000000 ) ) ;
#175 = CARTESIAN_POINT ( 'NONE',  ( 0.000000000000000000, 0.000000000000000000, 0.000000000000000000 ) ) ;
#176 = AXIS2_PLACEMENT_3D ( 'NONE', #248, #233, #71 ) ;
#177 = ORIENTED_EDGE ( 'NONE', *, *, #127, .F. ) ;
#178 = CALENDAR_DATE ( 2022, 7, 7 ) ;
#179 = ORIENTED_EDGE ( 'NONE', *, *, #245, .T. ) ;
#180 = APPLICATION_PROTOCOL_DEFINITION ( 'international standard', 'config_control_design', 1994, #252 ) ;
#181 = CC_DESIGN_PERSON_AND_ORGANIZATION_ASSIGNMENT ( #227, #96, ( #86 ) ) ;
#182 = AXIS2_PLACEMENT_3D ( 'NONE', #235, #213, #50 ) ;
#183 = APPROVAL_STATUS ( 'not_yet_approved' ) ;
#184 = DIRECTION ( 'NONE',  ( -0.000000000000000000, -0.000000000000000000, -1.000000000000000000 ) ) ;
#185 = PRODUCT ( '361f', '361f', '', ( #103 ) ) ;
#186 = DIRECTION ( 'NONE',  ( 1.000000000000000000, 0.000000000000000000, 0.000000000000000000 ) ) ;
#187 = APPROVAL ( #183, 'NEURÈENÝ' ) ;
#188 = CARTESIAN_POINT ( 'NONE',  ( 9.000000000000000000, 1.102182119232617714E-15, 7.000000000000000000 ) ) ;
#189 = AXIS2_PLACEMENT_3D ( 'NONE', #29, #52, #129 ) ;
#190 = FACE_BOUND ( 'NONE', #241, .T. ) ;
#191 = AXIS2_PLACEMENT_3D ( 'NONE', #48, #128, #112 ) ;
#192 = CARTESIAN_POINT ( 'NONE',  ( -9.000000000000000000, 0.000000000000000000, 7.000000000000000000 ) ) ;
#193 = CARTESIAN_POINT ( 'NONE',  ( 0.000000000000000000, 0.000000000000000000, 7.000000000000000000 ) ) ;
#194 = DIRECTION ( 'NONE',  ( 0.000000000000000000, 0.000000000000000000, 1.000000000000000000 ) ) ;
#195 = CALENDAR_DATE ( 2022, 7, 7 ) ;
#196 = DATE_AND_TIME ( #84, #45 ) ;
#197 = ORIENTED_EDGE ( 'NONE', *, *, #151, .T. ) ;
#198 = DATE_AND_TIME ( #178, #33 ) ;
#199 = CYLINDRICAL_SURFACE ( 'NONE', #136, 9.000000000000000000 ) ;
#200 = DIRECTION ( 'NONE',  ( 1.000000000000000000, 0.000000000000000000, 0.000000000000000000 ) ) ;
#201 = VERTEX_POINT ( 'NONE', #113 ) ;
#202 = DIRECTION ( 'NONE',  ( 0.000000000000000000, 0.000000000000000000, 1.000000000000000000 ) ) ;
#203 = ORIENTED_EDGE ( 'NONE', *, *, #10, .F. ) ;
#204 = LINE ( 'NONE', #244, #228 ) ;
#205 = CIRCLE ( 'NONE', #191, 6.250000000000000000 ) ;
#206 = AXIS2_PLACEMENT_3D ( 'NONE', #73, #109, #87 ) ;
#207 = AXIS2_PLACEMENT_3D ( 'NONE', #17, #152, #250 ) ;
#208 = PRODUCT_DEFINITION_SHAPE ( 'NONE', 'NONE',  #142 ) ;
#209 = PRODUCT_DEFINITION_FORMATION_WITH_SPECIFIED_SOURCE ( 'LIBOVOLNÝ', '', #185, .NOT_KNOWN. ) ;
#210 = ADVANCED_FACE ( 'NONE', ( #190, #15 ), #74, .T. ) ;
#211 = CIRCLE ( 'NONE', #120, 9.000000000000000000 ) ;
#212 = FACE_OUTER_BOUND ( 'NONE', #19, .T. ) ;
#213 = DIRECTION ( 'NONE',  ( 0.000000000000000000, 0.000000000000000000, 1.000000000000000000 ) ) ;
#214 = CARTESIAN_POINT ( 'NONE',  ( 0.000000000000000000, 0.000000000000000000, 322.0000000000000000 ) ) ;
#215 = ADVANCED_BREP_SHAPE_REPRESENTATION ( '361f', ( #102, #217 ), #49 ) ;
#216 = FACE_OUTER_BOUND ( 'NONE', #36, .T. ) ;
#217 = AXIS2_PLACEMENT_3D ( 'NONE', #175, #2, #20 ) ;
#218 = DIRECTION ( 'NONE',  ( 0.000000000000000000, 0.000000000000000000, 1.000000000000000000 ) ) ;
#219 = EDGE_CURVE ( 'NONE', #104, #157, #53, .T. ) ;
#220 = EDGE_LOOP ( 'NONE', ( #77, #6, #119, #243 ) ) ;
#221 = COORDINATED_UNIVERSAL_TIME_OFFSET ( 1, 0, .AHEAD. ) ;
#222 = PERSON_AND_ORGANIZATION ( #67, #72 ) ;
#223 = FACE_OUTER_BOUND ( 'NONE', #105, .T. ) ;
#224 = DATE_TIME_ROLE ( 'creation_date' ) ;
#225 = APPROVAL_ROLE ( '' ) ;
#226 = ORIENTED_EDGE ( 'NONE', *, *, #98, .T. ) ;
#227 = PERSON_AND_ORGANIZATION ( #67, #72 ) ;
#228 = VECTOR ( 'NONE', #56, 1000.000000000000000 ) ;
#229 = CC_DESIGN_DATE_AND_TIME_ASSIGNMENT ( #137, #224, ( #142 ) ) ;
#230 = APPROVAL_PERSON_ORGANIZATION ( #222, #61, #225 ) ;
#231 = DIRECTION ( 'NONE',  ( 1.000000000000000000, 0.000000000000000000, -0.000000000000000000 ) ) ;
#232 = CC_DESIGN_APPROVAL ( #39, ( #86 ) ) ;
#233 = DIRECTION ( 'NONE',  ( 0.000000000000000000, 0.000000000000000000, 1.000000000000000000 ) ) ;
#234 = CARTESIAN_POINT ( 'NONE',  ( 0.000000000000000000, 0.000000000000000000, 322.0000000000000000 ) ) ;
#235 = CARTESIAN_POINT ( 'NONE',  ( 0.000000000000000000, 0.000000000000000000, 322.0000000000000000 ) ) ;
#236 = APPROVAL_DATE_TIME ( #198, #39 ) ;
#237 = ORIENTED_EDGE ( 'NONE', *, *, #16, .F. ) ;
#238 = LINE ( 'NONE', #107, #43 ) ;
#239 = CALENDAR_DATE ( 2022, 7, 7 ) ;
#240 = CIRCLE ( 'NONE', #182, 6.250000000000000000 ) ;
#241 = EDGE_LOOP ( 'NONE', ( #177, #133 ) ) ;
#242 = APPROVAL_ROLE ( '' ) ;
#243 = ORIENTED_EDGE ( 'NONE', *, *, #143, .F. ) ;
#244 = CARTESIAN_POINT ( 'NONE',  ( -6.250000000000000000, 0.000000000000000000, 322.0000000000000000 ) ) ;
#245 = EDGE_CURVE ( 'NONE', #157, #104, #147, .T. ) ;
#246 = AXIS2_PLACEMENT_3D ( 'NONE', #40, #66, #121 ) ;
#247 = DIRECTION ( 'NONE',  ( -0.000000000000000000, -0.000000000000000000, -1.000000000000000000 ) ) ;
#248 = CARTESIAN_POINT ( 'NONE',  ( 0.000000000000000000, 0.000000000000000000, 0.000000000000000000 ) ) ;
#249 = CC_DESIGN_APPROVAL ( #61, ( #142 ) ) ;
#250 = DIRECTION ( 'NONE',  ( 1.000000000000000000, 0.000000000000000000, 0.000000000000000000 ) ) ;
#251 = CC_DESIGN_PERSON_AND_ORGANIZATION_ASSIGNMENT ( #124, #141, ( #185 ) ) ;
#252 = APPLICATION_CONTEXT ( 'configuration controlled 3d designs of mechanical parts and assemblies' ) ;
#253 = CARTESIAN_POINT ( 'NONE',  ( 9.000000000000000000, 1.102182119232617714E-15, 0.000000000000000000 ) ) ;
#254 = ORIENTED_EDGE ( 'NONE', *, *, #89, .F. ) ;
#255 = EDGE_CURVE ( 'NONE', #201, #64, #204, .T. ) ;
ENDSEC;
END-ISO-10303-21;
