ISO-10303-21;
HEADER;
FILE_DESCRIPTION (( 'STEP AP203' ),
    '1' );
FILE_NAME ('f991.STEP',
    '2022-07-07T17:34:59',
    ( '' ),
    ( '' ),
    'SwSTEP 2.0',
    'SolidWorks 2019',
    '' );
FILE_SCHEMA (( 'CONFIG_CONTROL_DESIGN' ));
ENDSEC;

DATA;
#1 = CIRCLE ( 'NONE', #72, 3.750000000000000000 ) ;
#2 = CALENDAR_DATE ( 2022, 7, 7 ) ;
#3 = ORIENTED_EDGE ( 'NONE', *, *, #186, .T. ) ;
#4 = EDGE_CURVE ( 'NONE', #66, #194, #20, .T. ) ;
#5 = SHAPE_DEFINITION_REPRESENTATION ( #130, #68 ) ;
#6 = AXIS2_PLACEMENT_3D ( 'NONE', #52, #134, #209 ) ;
#7 = PERSON_AND_ORGANIZATION_ROLE ( 'design_supplier' ) ;
#8 = ORIENTED_EDGE ( 'NONE', *, *, #129, .F. ) ;
#9 = APPROVAL ( #181, 'NEURÈENÝ' ) ;
#10 = APPLICATION_PROTOCOL_DEFINITION ( 'international standard', 'config_control_design', 1994, #27 ) ;
#11 = VERTEX_POINT ( 'NONE', #113 ) ;
#12 = VERTEX_POINT ( 'NONE', #252 ) ;
#13 = DIRECTION ( 'NONE',  ( -0.000000000000000000, -0.000000000000000000, -1.000000000000000000 ) ) ;
#14 = ORIENTED_EDGE ( 'NONE', *, *, #129, .T. ) ;
#15 = CARTESIAN_POINT ( 'NONE',  ( 6.000000000000000888, 7.347880794884120722E-16, 0.000000000000000000 ) ) ;
#16 = CARTESIAN_POINT ( 'NONE',  ( 3.750000000000000000, 4.592425496802573972E-16, 165.0000000000000000 ) ) ;
#17 = CC_DESIGN_PERSON_AND_ORGANIZATION_ASSIGNMENT ( #127, #147, ( #204 ) ) ;
#18 = CARTESIAN_POINT ( 'NONE',  ( 0.000000000000000000, 0.000000000000000000, 5.000000000000000000 ) ) ;
#19 = ADVANCED_FACE ( 'NONE', ( #111, #34 ), #234, .T. ) ;
#20 = CIRCLE ( 'NONE', #47, 6.000000000000000888 ) ;
#21 = CARTESIAN_POINT ( 'NONE',  ( 0.000000000000000000, 0.000000000000000000, 165.0000000000000000 ) ) ;
#22 = AXIS2_PLACEMENT_3D ( 'NONE', #217, #162, #223 ) ;
#23 = CARTESIAN_POINT ( 'NONE',  ( 0.000000000000000000, 0.000000000000000000, 165.0000000000000000 ) ) ;
#24 = VERTEX_POINT ( 'NONE', #173 ) ;
#25 = EDGE_LOOP ( 'NONE', ( #150, #69 ) ) ;
#26 = PERSON_AND_ORGANIZATION ( #184, #133 ) ;
#27 = APPLICATION_CONTEXT ( 'configuration controlled 3d designs of mechanical parts and assemblies' ) ;
#28 = CALENDAR_DATE ( 2022, 7, 7 ) ;
#29 = EDGE_LOOP ( 'NONE', ( #8, #109 ) ) ;
#30 = APPROVAL_DATE_TIME ( #202, #9 ) ;
#31 = CIRCLE ( 'NONE', #70, 6.000000000000000888 ) ;
#32 = CC_DESIGN_SECURITY_CLASSIFICATION ( #204, ( #149 ) ) ;
#33 = EDGE_LOOP ( 'NONE', ( #116, #3, #208, #247 ) ) ;
#34 = FACE_OUTER_BOUND ( 'NONE', #213, .T. ) ;
#35 = LINE ( 'NONE', #74, #140 ) ;
#36 = ORIENTED_EDGE ( 'NONE', *, *, #176, .T. ) ;
#37 = ORIENTED_EDGE ( 'NONE', *, *, #174, .F. ) ;
#38 = CARTESIAN_POINT ( 'NONE',  ( 0.000000000000000000, 0.000000000000000000, 5.000000000000000000 ) ) ;
#39 = DIRECTION ( 'NONE',  ( -0.000000000000000000, -0.000000000000000000, -1.000000000000000000 ) ) ;
#40 = CARTESIAN_POINT ( 'NONE',  ( 0.000000000000000000, 0.000000000000000000, 0.000000000000000000 ) ) ;
#41 = CARTESIAN_POINT ( 'NONE',  ( -3.750000000000000000, 0.000000000000000000, 5.000000000000000000 ) ) ;
#42 = CC_DESIGN_APPROVAL ( #9, ( #149 ) ) ;
#43 = AXIS2_PLACEMENT_3D ( 'NONE', #170, #250, #142 ) ;
#44 = CARTESIAN_POINT ( 'NONE',  ( 3.750000000000000000, 4.592425496802573972E-16, 165.0000000000000000 ) ) ;
#45 = ADVANCED_FACE ( 'NONE', ( #139 ), #228, .T. ) ;
#46 = MECHANICAL_CONTEXT ( 'NONE', #165, 'mechanical' ) ;
#47 = AXIS2_PLACEMENT_3D ( 'NONE', #58, #167, #75 ) ;
#48 = PERSON_AND_ORGANIZATION ( #184, #133 ) ;
#49 = DATE_AND_TIME ( #166, #222 ) ;
#50 = PERSON_AND_ORGANIZATION_ROLE ( 'creator' ) ;
#51 = ORIENTED_EDGE ( 'NONE', *, *, #4, .T. ) ;
#52 = CARTESIAN_POINT ( 'NONE',  ( 0.000000000000000000, 0.000000000000000000, 0.000000000000000000 ) ) ;
#53 = EDGE_LOOP ( 'NONE', ( #191, #120, #185, #14 ) ) ;
#54 = DIRECTION ( 'NONE',  ( 1.000000000000000000, 0.000000000000000000, 0.000000000000000000 ) ) ;
#55 = ADVANCED_FACE ( 'NONE', ( #96 ), #168, .T. ) ;
#56 = CARTESIAN_POINT ( 'NONE',  ( 0.000000000000000000, 0.000000000000000000, 5.000000000000000000 ) ) ;
#57 = AXIS2_PLACEMENT_3D ( 'NONE', #143, #193, #255 ) ;
#58 = CARTESIAN_POINT ( 'NONE',  ( 0.000000000000000000, 0.000000000000000000, 0.000000000000000000 ) ) ;
#59 = DIRECTION ( 'NONE',  ( -0.000000000000000000, -0.000000000000000000, -1.000000000000000000 ) ) ;
#60 = DIRECTION ( 'NONE',  ( -0.000000000000000000, -0.000000000000000000, -1.000000000000000000 ) ) ;
#61 = CC_DESIGN_PERSON_AND_ORGANIZATION_ASSIGNMENT ( #160, #106, ( #179 ) ) ;
#62 = APPROVAL_PERSON_ORGANIZATION ( #48, #9, #64 ) ;
#63 = PERSON_AND_ORGANIZATION ( #184, #133 ) ;
#64 = APPROVAL_ROLE ( '' ) ;
#65 = CALENDAR_DATE ( 2022, 7, 7 ) ;
#66 = VERTEX_POINT ( 'NONE', #15 ) ;
#67 = EDGE_CURVE ( 'NONE', #24, #12, #182, .T. ) ;
#68 = ADVANCED_BREP_SHAPE_REPRESENTATION ( 'f991', ( #231, #22 ), #146 ) ;
#69 = ORIENTED_EDGE ( 'NONE', *, *, #4, .F. ) ;
#70 = AXIS2_PLACEMENT_3D ( 'NONE', #38, #233, #79 ) ;
#71 = DIRECTION ( 'NONE',  ( -0.000000000000000000, -0.000000000000000000, -1.000000000000000000 ) ) ;
#72 = AXIS2_PLACEMENT_3D ( 'NONE', #158, #190, #175 ) ;
#73 = DIRECTION ( 'NONE',  ( -1.000000000000000000, 0.000000000000000000, 0.000000000000000000 ) ) ;
#74 = CARTESIAN_POINT ( 'NONE',  ( -3.750000000000000000, 0.000000000000000000, 165.0000000000000000 ) ) ;
#75 = DIRECTION ( 'NONE',  ( 1.000000000000000000, 0.000000000000000000, 0.000000000000000000 ) ) ;
#76 = CARTESIAN_POINT ( 'NONE',  ( 6.000000000000000888, 7.347880794884120722E-16, 5.000000000000000000 ) ) ;
#77 = AXIS2_PLACEMENT_3D ( 'NONE', #207, #39, #73 ) ;
#78 = DIRECTION ( 'NONE',  ( 0.000000000000000000, 0.000000000000000000, 1.000000000000000000 ) ) ;
#79 = DIRECTION ( 'NONE',  ( 1.000000000000000000, 0.000000000000000000, 0.000000000000000000 ) ) ;
#80 = CYLINDRICAL_SURFACE ( 'NONE', #243, 3.750000000000000000 ) ;
#81 = ADVANCED_FACE ( 'NONE', ( #137 ), #246, .F. ) ;
#82 = ADVANCED_FACE ( 'NONE', ( #117 ), #99, .T. ) ;
#83 = CIRCLE ( 'NONE', #225, 3.750000000000000000 ) ;
#84 = APPROVAL ( #240, 'NEURÈENÝ' ) ;
#85 = PERSON_AND_ORGANIZATION ( #184, #133 ) ;
#86 = PERSON_AND_ORGANIZATION_ROLE ( 'creator' ) ;
#87 = AXIS2_PLACEMENT_3D ( 'NONE', #18, #78, #192 ) ;
#88 = SECURITY_CLASSIFICATION_LEVEL ( 'unclassified' ) ;
#89 = AXIS2_PLACEMENT_3D ( 'NONE', #40, #121, #123 ) ;
#90 = AXIS2_PLACEMENT_3D ( 'NONE', #56, #198, #100 ) ;
#91 = ORIENTED_EDGE ( 'NONE', *, *, #241, .T. ) ;
#92 = COORDINATED_UNIVERSAL_TIME_OFFSET ( 1, 0, .AHEAD. ) ;
#93 = ORIENTED_EDGE ( 'NONE', *, *, #174, .T. ) ;
#94 = ORIENTED_EDGE ( 'NONE', *, *, #110, .F. ) ;
#95 = CIRCLE ( 'NONE', #189, 3.750000000000000000 ) ;
#96 = FACE_OUTER_BOUND ( 'NONE', #33, .T. ) ;
#97 =( LENGTH_UNIT ( ) NAMED_UNIT ( * ) SI_UNIT ( .MILLI., .METRE. ) );
#98 = DESIGN_CONTEXT ( 'detailed design', #27, 'design' ) ;
#99 = PLANE ( 'NONE',  #43 ) ;
#100 = DIRECTION ( 'NONE',  ( -1.000000000000000000, 0.000000000000000000, 0.000000000000000000 ) ) ;
#101 = ORIENTED_EDGE ( 'NONE', *, *, #67, .F. ) ;
#102 = DIRECTION ( 'NONE',  ( 1.000000000000000000, 0.000000000000000000, 0.000000000000000000 ) ) ;
#103 = LOCAL_TIME ( 19, 34, 59.00000000000000000, #126 ) ;
#104 = AXIS2_PLACEMENT_3D ( 'NONE', #211, #71, #151 ) ;
#105 = DATE_AND_TIME ( #28, #103 ) ;
#106 = PERSON_AND_ORGANIZATION_ROLE ( 'design_owner' ) ;
#107 = EDGE_LOOP ( 'NONE', ( #37, #94, #36, #199 ) ) ;
#108 = CLOSED_SHELL ( 'NONE', ( #55, #201, #45, #19, #81, #238, #82 ) ) ;
#109 = ORIENTED_EDGE ( 'NONE', *, *, #112, .F. ) ;
#110 = EDGE_CURVE ( 'NONE', #12, #24, #31, .T. ) ;
#111 = FACE_BOUND ( 'NONE', #29, .T. ) ;
#112 = EDGE_CURVE ( 'NONE', #244, #230, #95, .T. ) ;
#113 = CARTESIAN_POINT ( 'NONE',  ( -3.750000000000000000, 0.000000000000000000, 165.0000000000000000 ) ) ;
#114 = LINE ( 'NONE', #44, #237 ) ;
#115 = CIRCLE ( 'NONE', #57, 3.750000000000000000 ) ;
#116 = ORIENTED_EDGE ( 'NONE', *, *, #241, .F. ) ;
#117 = FACE_OUTER_BOUND ( 'NONE', #152, .T. ) ;
#118 = VECTOR ( 'NONE', #60, 1000.000000000000000 ) ;
#119 = DIRECTION ( 'NONE',  ( 0.000000000000000000, 0.000000000000000000, 1.000000000000000000 ) ) ;
#120 = ORIENTED_EDGE ( 'NONE', *, *, #122, .F. ) ;
#121 = DIRECTION ( 'NONE',  ( 0.000000000000000000, 0.000000000000000000, 1.000000000000000000 ) ) ;
#122 = EDGE_CURVE ( 'NONE', #11, #183, #83, .T. ) ;
#123 = DIRECTION ( 'NONE',  ( 1.000000000000000000, 0.000000000000000000, 0.000000000000000000 ) ) ;
#124 = FACE_OUTER_BOUND ( 'NONE', #187, .T. ) ;
#125 = DATE_TIME_ROLE ( 'creation_date' ) ;
#126 = COORDINATED_UNIVERSAL_TIME_OFFSET ( 1, 0, .AHEAD. ) ;
#127 = PERSON_AND_ORGANIZATION ( #184, #133 ) ;
#128 = CALENDAR_DATE ( 2022, 7, 7 ) ;
#129 = EDGE_CURVE ( 'NONE', #230, #244, #115, .T. ) ;
#130 = PRODUCT_DEFINITION_SHAPE ( 'NONE', 'NONE',  #224 ) ;
#131 = DATE_AND_TIME ( #65, #251 ) ;
#132 = UNCERTAINTY_MEASURE_WITH_UNIT (LENGTH_MEASURE( 1.000000000000000082E-05 ), #97, 'distance_accuracy_value', 'NONE');
#133 = ORGANIZATION ( 'NEURÈENÝ', 'NEURÈENÝ', '' ) ;
#134 = DIRECTION ( 'NONE',  ( 0.000000000000000000, 0.000000000000000000, 1.000000000000000000 ) ) ;
#135 = ORIENTED_EDGE ( 'NONE', *, *, #110, .T. ) ;
#136 = CC_DESIGN_APPROVAL ( #84, ( #224 ) ) ;
#137 = FACE_OUTER_BOUND ( 'NONE', #25, .T. ) ;
#138 = CARTESIAN_POINT ( 'NONE',  ( 0.000000000000000000, 0.000000000000000000, 5.000000000000000000 ) ) ;
#139 = FACE_OUTER_BOUND ( 'NONE', #107, .T. ) ;
#140 = VECTOR ( 'NONE', #13, 1000.000000000000000 ) ;
#141 = CARTESIAN_POINT ( 'NONE',  ( -6.000000000000000888, 0.000000000000000000, 5.000000000000000000 ) ) ;
#142 = DIRECTION ( 'NONE',  ( 1.000000000000000000, 0.000000000000000000, -0.000000000000000000 ) ) ;
#143 = CARTESIAN_POINT ( 'NONE',  ( 0.000000000000000000, 0.000000000000000000, 5.000000000000000000 ) ) ;
#144 = CC_DESIGN_APPROVAL ( #178, ( #204 ) ) ;
#145 = APPROVAL_STATUS ( 'not_yet_approved' ) ;
#146 =( GEOMETRIC_REPRESENTATION_CONTEXT ( 3 ) GLOBAL_UNCERTAINTY_ASSIGNED_CONTEXT ( ( #132 ) ) GLOBAL_UNIT_ASSIGNED_CONTEXT ( ( #97, #156, #210 ) ) REPRESENTATION_CONTEXT ( 'NONE', 'WORKASPACE' ) );
#147 = PERSON_AND_ORGANIZATION_ROLE ( 'classification_officer' ) ;
#148 = APPROVAL_ROLE ( '' ) ;
#149 = PRODUCT_DEFINITION_FORMATION_WITH_SPECIFIED_SOURCE ( 'LIBOVOLNÝ', '', #179, .NOT_KNOWN. ) ;
#150 = ORIENTED_EDGE ( 'NONE', *, *, #215, .F. ) ;
#151 = DIRECTION ( 'NONE',  ( -1.000000000000000000, 0.000000000000000000, 0.000000000000000000 ) ) ;
#152 = EDGE_LOOP ( 'NONE', ( #155, #91 ) ) ;
#153 = CARTESIAN_POINT ( 'NONE',  ( 0.000000000000000000, 0.000000000000000000, 5.000000000000000000 ) ) ;
#154 = APPROVAL_PERSON_ORGANIZATION ( #63, #178, #219 ) ;
#155 = ORIENTED_EDGE ( 'NONE', *, *, #122, .T. ) ;
#156 =( NAMED_UNIT ( * ) PLANE_ANGLE_UNIT ( ) SI_UNIT ( $, .RADIAN. ) );
#157 = DIRECTION ( 'NONE',  ( -0.000000000000000000, -0.000000000000000000, -1.000000000000000000 ) ) ;
#158 = CARTESIAN_POINT ( 'NONE',  ( 0.000000000000000000, 0.000000000000000000, 165.0000000000000000 ) ) ;
#159 = LOCAL_TIME ( 19, 34, 59.00000000000000000, #177 ) ;
#160 = PERSON_AND_ORGANIZATION ( #184, #133 ) ;
#161 = PRODUCT_RELATED_PRODUCT_CATEGORY ( 'detail', '', ( #179 ) ) ;
#162 = DIRECTION ( 'NONE',  ( 0.000000000000000000, 0.000000000000000000, 1.000000000000000000 ) ) ;
#163 = APPROVAL_PERSON_ORGANIZATION ( #26, #84, #148 ) ;
#164 = PERSON_AND_ORGANIZATION ( #184, #133 ) ;
#165 = APPLICATION_CONTEXT ( 'configuration controlled 3d designs of mechanical parts and assemblies' ) ;
#166 = CALENDAR_DATE ( 2022, 7, 7 ) ;
#167 = DIRECTION ( 'NONE',  ( 0.000000000000000000, 0.000000000000000000, 1.000000000000000000 ) ) ;
#168 = CYLINDRICAL_SURFACE ( 'NONE', #77, 3.750000000000000000 ) ;
#169 = DIRECTION ( 'NONE',  ( 1.000000000000000000, 0.000000000000000000, 0.000000000000000000 ) ) ;
#170 = CARTESIAN_POINT ( 'NONE',  ( 0.000000000000000000, 0.000000000000000000, 165.0000000000000000 ) ) ;
#171 = DIRECTION ( 'NONE',  ( -1.000000000000000000, 0.000000000000000000, 0.000000000000000000 ) ) ;
#172 = LOCAL_TIME ( 19, 34, 59.00000000000000000, #206 ) ;
#173 = CARTESIAN_POINT ( 'NONE',  ( 6.000000000000000888, 7.347880794884120722E-16, 5.000000000000000000 ) ) ;
#174 = EDGE_CURVE ( 'NONE', #24, #66, #212, .T. ) ;
#175 = DIRECTION ( 'NONE',  ( 1.000000000000000000, 0.000000000000000000, 0.000000000000000000 ) ) ;
#176 = EDGE_CURVE ( 'NONE', #12, #194, #216, .T. ) ;
#177 = COORDINATED_UNIVERSAL_TIME_OFFSET ( 1, 0, .AHEAD. ) ;
#178 = APPROVAL ( #145, 'NEURÈENÝ' ) ;
#179 = PRODUCT ( 'f991', 'f991', '', ( #46 ) ) ;
#180 = APPROVAL_DATE_TIME ( #105, #178 ) ;
#181 = APPROVAL_STATUS ( 'not_yet_approved' ) ;
#182 = CIRCLE ( 'NONE', #218, 6.000000000000000888 ) ;
#183 = VERTEX_POINT ( 'NONE', #16 ) ;
#184 = PERSON ( 'NEURÈENÝ', 'NEURÈENÝ', 'NEURÈENÝ', ('NEURÈENÝ'), ('NEURÈENÝ'), ('NEURÈENÝ') ) ;
#185 = ORIENTED_EDGE ( 'NONE', *, *, #253, .T. ) ;
#186 = EDGE_CURVE ( 'NONE', #183, #244, #114, .T. ) ;
#187 = EDGE_LOOP ( 'NONE', ( #101, #93, #51, #188 ) ) ;
#188 = ORIENTED_EDGE ( 'NONE', *, *, #176, .F. ) ;
#189 = AXIS2_PLACEMENT_3D ( 'NONE', #138, #249, #102 ) ;
#190 = DIRECTION ( 'NONE',  ( 0.000000000000000000, 0.000000000000000000, 1.000000000000000000 ) ) ;
#191 = ORIENTED_EDGE ( 'NONE', *, *, #186, .F. ) ;
#192 = DIRECTION ( 'NONE',  ( 1.000000000000000000, 0.000000000000000000, -0.000000000000000000 ) ) ;
#193 = DIRECTION ( 'NONE',  ( 0.000000000000000000, 0.000000000000000000, 1.000000000000000000 ) ) ;
#194 = VERTEX_POINT ( 'NONE', #214 ) ;
#195 = DIRECTION ( 'NONE',  ( -0.000000000000000000, -0.000000000000000000, -1.000000000000000000 ) ) ;
#196 = FACE_OUTER_BOUND ( 'NONE', #53, .T. ) ;
#197 = CC_DESIGN_PERSON_AND_ORGANIZATION_ASSIGNMENT ( #245, #50, ( #224 ) ) ;
#198 = DIRECTION ( 'NONE',  ( -0.000000000000000000, -0.000000000000000000, -1.000000000000000000 ) ) ;
#199 = ORIENTED_EDGE ( 'NONE', *, *, #215, .T. ) ;
#200 = APPLICATION_PROTOCOL_DEFINITION ( 'international standard', 'config_control_design', 1994, #165 ) ;
#201 = ADVANCED_FACE ( 'NONE', ( #124 ), #235, .T. ) ;
#202 = DATE_AND_TIME ( #2, #172 ) ;
#203 = CC_DESIGN_PERSON_AND_ORGANIZATION_ASSIGNMENT ( #85, #86, ( #149 ) ) ;
#204 = SECURITY_CLASSIFICATION ( '', '', #88 ) ;
#205 = COORDINATED_UNIVERSAL_TIME_OFFSET ( 1, 0, .AHEAD. ) ;
#206 = COORDINATED_UNIVERSAL_TIME_OFFSET ( 1, 0, .AHEAD. ) ;
#207 = CARTESIAN_POINT ( 'NONE',  ( 0.000000000000000000, 0.000000000000000000, 165.0000000000000000 ) ) ;
#208 = ORIENTED_EDGE ( 'NONE', *, *, #112, .T. ) ;
#209 = DIRECTION ( 'NONE',  ( 1.000000000000000000, 0.000000000000000000, -0.000000000000000000 ) ) ;
#210 =( NAMED_UNIT ( * ) SI_UNIT ( $, .STERADIAN. ) SOLID_ANGLE_UNIT ( ) );
#211 = CARTESIAN_POINT ( 'NONE',  ( 0.000000000000000000, 0.000000000000000000, 5.000000000000000000 ) ) ;
#212 = LINE ( 'NONE', #76, #118 ) ;
#213 = EDGE_LOOP ( 'NONE', ( #135, #248 ) ) ;
#214 = CARTESIAN_POINT ( 'NONE',  ( -6.000000000000000888, 0.000000000000000000, 0.000000000000000000 ) ) ;
#215 = EDGE_CURVE ( 'NONE', #194, #66, #220, .T. ) ;
#216 = LINE ( 'NONE', #141, #254 ) ;
#217 = CARTESIAN_POINT ( 'NONE',  ( 0.000000000000000000, 0.000000000000000000, 0.000000000000000000 ) ) ;
#218 = AXIS2_PLACEMENT_3D ( 'NONE', #153, #232, #54 ) ;
#219 = APPROVAL_ROLE ( '' ) ;
#220 = CIRCLE ( 'NONE', #89, 6.000000000000000888 ) ;
#221 = DATE_AND_TIME ( #128, #159 ) ;
#222 = LOCAL_TIME ( 19, 34, 59.00000000000000000, #92 ) ;
#223 = DIRECTION ( 'NONE',  ( 1.000000000000000000, 0.000000000000000000, 0.000000000000000000 ) ) ;
#224 = PRODUCT_DEFINITION ( 'NEZNÁMÝ', '', #149, #98 ) ;
#225 = AXIS2_PLACEMENT_3D ( 'NONE', #23, #119, #169 ) ;
#226 = CC_DESIGN_DATE_AND_TIME_ASSIGNMENT ( #131, #239, ( #204 ) ) ;
#227 = APPROVAL_DATE_TIME ( #49, #84 ) ;
#228 = CYLINDRICAL_SURFACE ( 'NONE', #104, 6.000000000000000888 ) ;
#229 = CC_DESIGN_PERSON_AND_ORGANIZATION_ASSIGNMENT ( #164, #7, ( #149 ) ) ;
#230 = VERTEX_POINT ( 'NONE', #41 ) ;
#231 = MANIFOLD_SOLID_BREP ( 'Pøidat vysunutím3', #108 ) ;
#232 = DIRECTION ( 'NONE',  ( 0.000000000000000000, 0.000000000000000000, 1.000000000000000000 ) ) ;
#233 = DIRECTION ( 'NONE',  ( 0.000000000000000000, 0.000000000000000000, 1.000000000000000000 ) ) ;
#234 = PLANE ( 'NONE',  #87 ) ;
#235 = CYLINDRICAL_SURFACE ( 'NONE', #90, 6.000000000000000888 ) ;
#236 = CARTESIAN_POINT ( 'NONE',  ( 3.750000000000000000, 4.592425496802573972E-16, 5.000000000000000000 ) ) ;
#237 = VECTOR ( 'NONE', #59, 1000.000000000000000 ) ;
#238 = ADVANCED_FACE ( 'NONE', ( #196 ), #80, .T. ) ;
#239 = DATE_TIME_ROLE ( 'classification_date' ) ;
#240 = APPROVAL_STATUS ( 'not_yet_approved' ) ;
#241 = EDGE_CURVE ( 'NONE', #183, #11, #1, .T. ) ;
#242 = CC_DESIGN_DATE_AND_TIME_ASSIGNMENT ( #221, #125, ( #224 ) ) ;
#243 = AXIS2_PLACEMENT_3D ( 'NONE', #21, #195, #171 ) ;
#244 = VERTEX_POINT ( 'NONE', #236 ) ;
#245 = PERSON_AND_ORGANIZATION ( #184, #133 ) ;
#246 = PLANE ( 'NONE',  #6 ) ;
#247 = ORIENTED_EDGE ( 'NONE', *, *, #253, .F. ) ;
#248 = ORIENTED_EDGE ( 'NONE', *, *, #67, .T. ) ;
#249 = DIRECTION ( 'NONE',  ( 0.000000000000000000, 0.000000000000000000, 1.000000000000000000 ) ) ;
#250 = DIRECTION ( 'NONE',  ( 0.000000000000000000, 0.000000000000000000, 1.000000000000000000 ) ) ;
#251 = LOCAL_TIME ( 19, 34, 59.00000000000000000, #205 ) ;
#252 = CARTESIAN_POINT ( 'NONE',  ( -6.000000000000000888, 0.000000000000000000, 5.000000000000000000 ) ) ;
#253 = EDGE_CURVE ( 'NONE', #11, #230, #35, .T. ) ;
#254 = VECTOR ( 'NONE', #157, 1000.000000000000000 ) ;
#255 = DIRECTION ( 'NONE',  ( 1.000000000000000000, 0.000000000000000000, 0.000000000000000000 ) ) ;
ENDSEC;
END-ISO-10303-21;
