ISO-10303-21;
HEADER;
FILE_DESCRIPTION (( 'STEP AP203' ),
    '1' );
FILE_NAME ('ed9b.STEP',
    '2022-07-07T17:11:25',
    ( '' ),
    ( '' ),
    'SwSTEP 2.0',
    'SolidWorks 2019',
    '' );
FILE_SCHEMA (( 'CONFIG_CONTROL_DESIGN' ));
ENDSEC;

DATA;
#1 = ORIENTED_EDGE ( 'NONE', *, *, #137, .F. ) ;
#2 = APPROVAL_STATUS ( 'not_yet_approved' ) ;
#3 = APPROVAL ( #199, 'NEURÈENÝ' ) ;
#4 = ORIENTED_EDGE ( 'NONE', *, *, #158, .T. ) ;
#5 = DIRECTION ( 'NONE',  ( 0.000000000000000000, 0.000000000000000000, 1.000000000000000000 ) ) ;
#6 = SECURITY_CLASSIFICATION_LEVEL ( 'unclassified' ) ;
#7 = CARTESIAN_POINT ( 'NONE',  ( -11.00000000000000000, 0.000000000000000000, 7.000000000000000000 ) ) ;
#8 = PLANE ( 'NONE',  #99 ) ;
#9 = ADVANCED_FACE ( 'NONE', ( #127 ), #76, .T. ) ;
#10 = DIRECTION ( 'NONE',  ( -0.000000000000000000, -0.000000000000000000, -1.000000000000000000 ) ) ;
#11 = CIRCLE ( 'NONE', #67, 7.500000000000000000 ) ;
#12 = PLANE ( 'NONE',  #179 ) ;
#13 = DIRECTION ( 'NONE',  ( 0.000000000000000000, 0.000000000000000000, 1.000000000000000000 ) ) ;
#14 = CARTESIAN_POINT ( 'NONE',  ( 0.000000000000000000, 0.000000000000000000, 0.000000000000000000 ) ) ;
#15 = CARTESIAN_POINT ( 'NONE',  ( 7.500000000000000000, 9.184850993605147944E-16, 107.0000000000000142 ) ) ;
#16 = EDGE_CURVE ( 'NONE', #161, #101, #131, .T. ) ;
#17 =( LENGTH_UNIT ( ) NAMED_UNIT ( * ) SI_UNIT ( .MILLI., .METRE. ) );
#18 = MANIFOLD_SOLID_BREP ( 'Pøidat vysunutím3', #143 ) ;
#19 = DIRECTION ( 'NONE',  ( -1.000000000000000000, 0.000000000000000000, 0.000000000000000000 ) ) ;
#20 = ORIENTED_EDGE ( 'NONE', *, *, #200, .F. ) ;
#21 = ADVANCED_BREP_SHAPE_REPRESENTATION ( 'ed9b', ( #18, #251 ), #175 ) ;
#22 = EDGE_CURVE ( 'NONE', #123, #161, #219, .T. ) ;
#23 = PERSON_AND_ORGANIZATION_ROLE ( 'creator' ) ;
#24 = EDGE_LOOP ( 'NONE', ( #178, #180, #233, #120 ) ) ;
#25 = CALENDAR_DATE ( 2022, 7, 7 ) ;
#26 = ORIENTED_EDGE ( 'NONE', *, *, #158, .F. ) ;
#27 = PERSON_AND_ORGANIZATION_ROLE ( 'classification_officer' ) ;
#28 = AXIS2_PLACEMENT_3D ( 'NONE', #89, #13, #92 ) ;
#29 = CARTESIAN_POINT ( 'NONE',  ( 0.000000000000000000, 0.000000000000000000, 7.000000000000000000 ) ) ;
#30 = PLANE ( 'NONE',  #244 ) ;
#31 = APPROVAL ( #118, 'NEURÈENÝ' ) ;
#32 = DIRECTION ( 'NONE',  ( 1.000000000000000000, 0.000000000000000000, 0.000000000000000000 ) ) ;
#33 = DIRECTION ( 'NONE',  ( 1.000000000000000000, 0.000000000000000000, -0.000000000000000000 ) ) ;
#34 = DIRECTION ( 'NONE',  ( 0.000000000000000000, 0.000000000000000000, 1.000000000000000000 ) ) ;
#35 = CARTESIAN_POINT ( 'NONE',  ( 0.000000000000000000, 0.000000000000000000, 107.0000000000000142 ) ) ;
#36 = CC_DESIGN_APPROVAL ( #236, ( #231 ) ) ;
#37 = DIRECTION ( 'NONE',  ( 1.000000000000000000, 0.000000000000000000, 0.000000000000000000 ) ) ;
#38 = DIRECTION ( 'NONE',  ( 0.000000000000000000, 0.000000000000000000, 1.000000000000000000 ) ) ;
#39 = AXIS2_PLACEMENT_3D ( 'NONE', #170, #227, #189 ) ;
#40 = AXIS2_PLACEMENT_3D ( 'NONE', #172, #5, #108 ) ;
#41 = CIRCLE ( 'NONE', #28, 11.00000000000000000 ) ;
#42 = PERSON_AND_ORGANIZATION ( #174, #139 ) ;
#43 = ORIENTED_EDGE ( 'NONE', *, *, #140, .F. ) ;
#44 = CALENDAR_DATE ( 2022, 7, 7 ) ;
#45 = ORIENTED_EDGE ( 'NONE', *, *, #137, .T. ) ;
#46 = APPROVAL_DATE_TIME ( #160, #3 ) ;
#47 = EDGE_LOOP ( 'NONE', ( #43, #20 ) ) ;
#48 = PERSON_AND_ORGANIZATION ( #174, #139 ) ;
#49 = CC_DESIGN_APPROVAL ( #31, ( #254 ) ) ;
#50 = CARTESIAN_POINT ( 'NONE',  ( 0.000000000000000000, 0.000000000000000000, 107.0000000000000142 ) ) ;
#51 = PERSON_AND_ORGANIZATION ( #174, #139 ) ;
#52 = DIRECTION ( 'NONE',  ( -0.000000000000000000, -0.000000000000000000, -1.000000000000000000 ) ) ;
#53 = DIRECTION ( 'NONE',  ( 0.000000000000000000, 0.000000000000000000, 1.000000000000000000 ) ) ;
#54 = DIRECTION ( 'NONE',  ( 1.000000000000000000, 0.000000000000000000, 0.000000000000000000 ) ) ;
#55 = CARTESIAN_POINT ( 'NONE',  ( 7.500000000000000000, 9.184850993605147944E-16, 107.0000000000000142 ) ) ;
#56 = CC_DESIGN_PERSON_AND_ORGANIZATION_ASSIGNMENT ( #51, #241, ( #254 ) ) ;
#57 = CARTESIAN_POINT ( 'NONE',  ( 0.000000000000000000, 0.000000000000000000, 0.000000000000000000 ) ) ;
#58 = PERSON_AND_ORGANIZATION_ROLE ( 'design_owner' ) ;
#59 = CALENDAR_DATE ( 2022, 7, 7 ) ;
#60 = AXIS2_PLACEMENT_3D ( 'NONE', #192, #242, #222 ) ;
#61 = EDGE_CURVE ( 'NONE', #101, #220, #176, .T. ) ;
#62 = ORIENTED_EDGE ( 'NONE', *, *, #61, .T. ) ;
#63 = ORIENTED_EDGE ( 'NONE', *, *, #22, .T. ) ;
#64 = ORIENTED_EDGE ( 'NONE', *, *, #16, .T. ) ;
#65 = AXIS2_PLACEMENT_3D ( 'NONE', #57, #239, #133 ) ;
#66 = DIRECTION ( 'NONE',  ( 0.000000000000000000, 0.000000000000000000, 1.000000000000000000 ) ) ;
#67 = AXIS2_PLACEMENT_3D ( 'NONE', #130, #209, #229 ) ;
#68 = CYLINDRICAL_SURFACE ( 'NONE', #225, 7.500000000000000000 ) ;
#69 = APPROVAL_ROLE ( '' ) ;
#70 = DIRECTION ( 'NONE',  ( 0.000000000000000000, 0.000000000000000000, 1.000000000000000000 ) ) ;
#71 = EDGE_CURVE ( 'NONE', #182, #255, #210, .T. ) ;
#72 = CARTESIAN_POINT ( 'NONE',  ( 7.500000000000000000, 9.184850993605147944E-16, 7.000000000000000000 ) ) ;
#73 = FACE_OUTER_BOUND ( 'NONE', #162, .T. ) ;
#74 = CC_DESIGN_DATE_AND_TIME_ASSIGNMENT ( #183, #126, ( #231 ) ) ;
#75 = CC_DESIGN_PERSON_AND_ORGANIZATION_ASSIGNMENT ( #217, #23, ( #193 ) ) ;
#76 = CYLINDRICAL_SURFACE ( 'NONE', #107, 11.00000000000000000 ) ;
#77 = COORDINATED_UNIVERSAL_TIME_OFFSET ( 1, 0, .AHEAD. ) ;
#78 = ORIENTED_EDGE ( 'NONE', *, *, #230, .F. ) ;
#79 = DATE_AND_TIME ( #44, #173 ) ;
#80 = EDGE_LOOP ( 'NONE', ( #98, #181 ) ) ;
#81 = CC_DESIGN_SECURITY_CLASSIFICATION ( #231, ( #193 ) ) ;
#82 = EDGE_LOOP ( 'NONE', ( #78, #125, #196, #159 ) ) ;
#83 = ADVANCED_FACE ( 'NONE', ( #117 ), #68, .T. ) ;
#84 = FACE_OUTER_BOUND ( 'NONE', #232, .T. ) ;
#85 = COORDINATED_UNIVERSAL_TIME_OFFSET ( 1, 0, .AHEAD. ) ;
#86 = CARTESIAN_POINT ( 'NONE',  ( -7.500000000000000000, 0.000000000000000000, 107.0000000000000142 ) ) ;
#87 = DATE_AND_TIME ( #59, #96 ) ;
#88 = EDGE_CURVE ( 'NONE', #182, #142, #146, .T. ) ;
#89 = CARTESIAN_POINT ( 'NONE',  ( 0.000000000000000000, 0.000000000000000000, 7.000000000000000000 ) ) ;
#90 = CARTESIAN_POINT ( 'NONE',  ( -7.500000000000000000, 0.000000000000000000, 7.000000000000000000 ) ) ;
#91 = MECHANICAL_CONTEXT ( 'NONE', #111, 'mechanical' ) ;
#92 = DIRECTION ( 'NONE',  ( 1.000000000000000000, 0.000000000000000000, 0.000000000000000000 ) ) ;
#93 = ADVANCED_FACE ( 'NONE', ( #73 ), #223, .T. ) ;
#94 = UNCERTAINTY_MEASURE_WITH_UNIT (LENGTH_MEASURE( 1.000000000000000082E-05 ), #17, 'distance_accuracy_value', 'NONE');
#95 = ADVANCED_FACE ( 'NONE', ( #186, #84 ), #30, .T. ) ;
#96 = LOCAL_TIME ( 19, 11, 25.00000000000000000, #167 ) ;
#97 = AXIS2_PLACEMENT_3D ( 'NONE', #50, #66, #54 ) ;
#98 = ORIENTED_EDGE ( 'NONE', *, *, #61, .F. ) ;
#99 = AXIS2_PLACEMENT_3D ( 'NONE', #116, #34, #203 ) ;
#100 = LOCAL_TIME ( 19, 11, 25.00000000000000000, #85 ) ;
#101 = VERTEX_POINT ( 'NONE', #205 ) ;
#102 = APPROVAL_ROLE ( '' ) ;
#103 = ADVANCED_FACE ( 'NONE', ( #246 ), #129, .T. ) ;
#104 = ORIENTED_EDGE ( 'NONE', *, *, #22, .F. ) ;
#105 = CC_DESIGN_APPROVAL ( #3, ( #193 ) ) ;
#106 = CALENDAR_DATE ( 2022, 7, 7 ) ;
#107 = AXIS2_PLACEMENT_3D ( 'NONE', #29, #195, #19 ) ;
#108 = DIRECTION ( 'NONE',  ( 1.000000000000000000, 0.000000000000000000, 0.000000000000000000 ) ) ;
#109 = PERSON_AND_ORGANIZATION ( #174, #139 ) ;
#110 = EDGE_CURVE ( 'NONE', #255, #198, #208, .T. ) ;
#111 = APPLICATION_CONTEXT ( 'configuration controlled 3d designs of mechanical parts and assemblies' ) ;
#112 = CIRCLE ( 'NONE', #234, 11.00000000000000000 ) ;
#113 = CARTESIAN_POINT ( 'NONE',  ( 0.000000000000000000, 0.000000000000000000, 0.000000000000000000 ) ) ;
#114 = APPROVAL_PERSON_ORGANIZATION ( #144, #3, #122 ) ;
#115 = DIRECTION ( 'NONE',  ( -1.000000000000000000, 0.000000000000000000, 0.000000000000000000 ) ) ;
#116 = CARTESIAN_POINT ( 'NONE',  ( 0.000000000000000000, 0.000000000000000000, 107.0000000000000142 ) ) ;
#117 = FACE_OUTER_BOUND ( 'NONE', #24, .T. ) ;
#118 = APPROVAL_STATUS ( 'not_yet_approved' ) ;
#119 = EDGE_CURVE ( 'NONE', #220, #101, #112, .T. ) ;
#120 = ORIENTED_EDGE ( 'NONE', *, *, #140, .T. ) ;
#121 = CC_DESIGN_DATE_AND_TIME_ASSIGNMENT ( #79, #216, ( #254 ) ) ;
#122 = APPROVAL_ROLE ( '' ) ;
#123 = VERTEX_POINT ( 'NONE', #202 ) ;
#124 = PERSON_AND_ORGANIZATION ( #174, #139 ) ;
#125 = ORIENTED_EDGE ( 'NONE', *, *, #110, .T. ) ;
#126 = DATE_TIME_ROLE ( 'classification_date' ) ;
#127 = FACE_OUTER_BOUND ( 'NONE', #235, .T. ) ;
#128 = DATE_AND_TIME ( #25, #141 ) ;
#129 = CYLINDRICAL_SURFACE ( 'NONE', #157, 7.500000000000000000 ) ;
#130 = CARTESIAN_POINT ( 'NONE',  ( 0.000000000000000000, 0.000000000000000000, 7.000000000000000000 ) ) ;
#131 = LINE ( 'NONE', #168, #191 ) ;
#132 = CARTESIAN_POINT ( 'NONE',  ( 0.000000000000000000, 0.000000000000000000, 107.0000000000000142 ) ) ;
#133 = DIRECTION ( 'NONE',  ( 1.000000000000000000, 0.000000000000000000, 0.000000000000000000 ) ) ;
#134 = DIRECTION ( 'NONE',  ( -0.000000000000000000, -0.000000000000000000, -1.000000000000000000 ) ) ;
#135 = PERSON_AND_ORGANIZATION ( #174, #139 ) ;
#136 = PRODUCT_DEFINITION_SHAPE ( 'NONE', 'NONE',  #254 ) ;
#137 = EDGE_CURVE ( 'NONE', #161, #123, #41, .T. ) ;
#138 = ORIENTED_EDGE ( 'NONE', *, *, #119, .T. ) ;
#139 = ORGANIZATION ( 'NEURÈENÝ', 'NEURÈENÝ', '' ) ;
#140 = EDGE_CURVE ( 'NONE', #142, #198, #147, .T. ) ;
#141 = LOCAL_TIME ( 19, 11, 25.00000000000000000, #197 ) ;
#142 = VERTEX_POINT ( 'NONE', #90 ) ;
#143 = CLOSED_SHELL ( 'NONE', ( #103, #9, #93, #95, #194, #83, #250 ) ) ;
#144 = PERSON_AND_ORGANIZATION ( #174, #139 ) ;
#145 = ORIENTED_EDGE ( 'NONE', *, *, #230, .T. ) ;
#146 = LINE ( 'NONE', #151, #238 ) ;
#147 = CIRCLE ( 'NONE', #40, 7.500000000000000000 ) ;
#148 = LOCAL_TIME ( 19, 11, 25.00000000000000000, #77 ) ;
#149 = DIRECTION ( 'NONE',  ( -1.000000000000000000, 0.000000000000000000, 0.000000000000000000 ) ) ;
#150 = APPLICATION_PROTOCOL_DEFINITION ( 'international standard', 'config_control_design', 1994, #111 ) ;
#151 = CARTESIAN_POINT ( 'NONE',  ( -7.500000000000000000, 0.000000000000000000, 107.0000000000000142 ) ) ;
#152 = DIRECTION ( 'NONE',  ( -0.000000000000000000, -0.000000000000000000, -1.000000000000000000 ) ) ;
#153 = DIRECTION ( 'NONE',  ( 1.000000000000000000, 0.000000000000000000, -0.000000000000000000 ) ) ;
#154 = FACE_OUTER_BOUND ( 'NONE', #237, .T. ) ;
#155 = VECTOR ( 'NONE', #10, 1000.000000000000000 ) ;
#156 = CIRCLE ( 'NONE', #213, 7.500000000000000000 ) ;
#157 = AXIS2_PLACEMENT_3D ( 'NONE', #35, #164, #115 ) ;
#158 = EDGE_CURVE ( 'NONE', #123, #220, #166, .T. ) ;
#159 = ORIENTED_EDGE ( 'NONE', *, *, #88, .F. ) ;
#160 = DATE_AND_TIME ( #106, #148 ) ;
#161 = VERTEX_POINT ( 'NONE', #7 ) ;
#162 = EDGE_LOOP ( 'NONE', ( #26, #1, #64, #62 ) ) ;
#163 = CALENDAR_DATE ( 2022, 7, 7 ) ;
#164 = DIRECTION ( 'NONE',  ( -0.000000000000000000, -0.000000000000000000, -1.000000000000000000 ) ) ;
#165 = APPROVAL_DATE_TIME ( #128, #236 ) ;
#166 = LINE ( 'NONE', #184, #188 ) ;
#167 = COORDINATED_UNIVERSAL_TIME_OFFSET ( 1, 0, .AHEAD. ) ;
#168 = CARTESIAN_POINT ( 'NONE',  ( -11.00000000000000000, 0.000000000000000000, 7.000000000000000000 ) ) ;
#169 = CARTESIAN_POINT ( 'NONE',  ( 0.000000000000000000, 0.000000000000000000, 0.000000000000000000 ) ) ;
#170 = CARTESIAN_POINT ( 'NONE',  ( 0.000000000000000000, 0.000000000000000000, 7.000000000000000000 ) ) ;
#171 = PRODUCT_RELATED_PRODUCT_CATEGORY ( 'detail', '', ( #248 ) ) ;
#172 = CARTESIAN_POINT ( 'NONE',  ( 0.000000000000000000, 0.000000000000000000, 7.000000000000000000 ) ) ;
#173 = LOCAL_TIME ( 19, 11, 25.00000000000000000, #224 ) ;
#174 = PERSON ( 'NEURÈENÝ', 'NEURÈENÝ', 'NEURÈENÝ', ('NEURÈENÝ'), ('NEURÈENÝ'), ('NEURÈENÝ') ) ;
#175 =( GEOMETRIC_REPRESENTATION_CONTEXT ( 3 ) GLOBAL_UNCERTAINTY_ASSIGNED_CONTEXT ( ( #94 ) ) GLOBAL_UNIT_ASSIGNED_CONTEXT ( ( #17, #187, #243 ) ) REPRESENTATION_CONTEXT ( 'NONE', 'WORKASPACE' ) );
#176 = CIRCLE ( 'NONE', #65, 11.00000000000000000 ) ;
#177 = CC_DESIGN_PERSON_AND_ORGANIZATION_ASSIGNMENT ( #109, #58, ( #248 ) ) ;
#178 = ORIENTED_EDGE ( 'NONE', *, *, #110, .F. ) ;
#179 = AXIS2_PLACEMENT_3D ( 'NONE', #169, #53, #153 ) ;
#180 = ORIENTED_EDGE ( 'NONE', *, *, #71, .F. ) ;
#181 = ORIENTED_EDGE ( 'NONE', *, *, #119, .F. ) ;
#182 = VERTEX_POINT ( 'NONE', #86 ) ;
#183 = DATE_AND_TIME ( #163, #100 ) ;
#184 = CARTESIAN_POINT ( 'NONE',  ( 11.00000000000000000, 1.347111479062088405E-15, 7.000000000000000000 ) ) ;
#185 = APPLICATION_PROTOCOL_DEFINITION ( 'international standard', 'config_control_design', 1994, #253 ) ;
#186 = FACE_BOUND ( 'NONE', #47, .T. ) ;
#187 =( NAMED_UNIT ( * ) PLANE_ANGLE_UNIT ( ) SI_UNIT ( $, .RADIAN. ) );
#188 = VECTOR ( 'NONE', #152, 1000.000000000000000 ) ;
#189 = DIRECTION ( 'NONE',  ( 1.000000000000000000, 0.000000000000000000, 0.000000000000000000 ) ) ;
#190 = CARTESIAN_POINT ( 'NONE',  ( 11.00000000000000000, 1.347111479062088405E-15, 0.000000000000000000 ) ) ;
#191 = VECTOR ( 'NONE', #240, 1000.000000000000000 ) ;
#192 = CARTESIAN_POINT ( 'NONE',  ( 0.000000000000000000, 0.000000000000000000, 7.000000000000000000 ) ) ;
#193 = PRODUCT_DEFINITION_FORMATION_WITH_SPECIFIED_SOURCE ( 'LIBOVOLNÝ', '', #248, .NOT_KNOWN. ) ;
#194 = ADVANCED_FACE ( 'NONE', ( #228 ), #12, .F. ) ;
#195 = DIRECTION ( 'NONE',  ( -0.000000000000000000, -0.000000000000000000, -1.000000000000000000 ) ) ;
#196 = ORIENTED_EDGE ( 'NONE', *, *, #200, .T. ) ;
#197 = COORDINATED_UNIVERSAL_TIME_OFFSET ( 1, 0, .AHEAD. ) ;
#198 = VERTEX_POINT ( 'NONE', #72 ) ;
#199 = APPROVAL_STATUS ( 'not_yet_approved' ) ;
#200 = EDGE_CURVE ( 'NONE', #198, #142, #11, .T. ) ;
#201 = SHAPE_DEFINITION_REPRESENTATION ( #136, #21 ) ;
#202 = CARTESIAN_POINT ( 'NONE',  ( 11.00000000000000000, 1.347111479062088405E-15, 7.000000000000000000 ) ) ;
#203 = DIRECTION ( 'NONE',  ( 1.000000000000000000, 0.000000000000000000, -0.000000000000000000 ) ) ;
#204 = CARTESIAN_POINT ( 'NONE',  ( 0.000000000000000000, 0.000000000000000000, 107.0000000000000142 ) ) ;
#205 = CARTESIAN_POINT ( 'NONE',  ( -11.00000000000000000, 0.000000000000000000, 0.000000000000000000 ) ) ;
#206 = DIRECTION ( 'NONE',  ( 0.000000000000000000, 0.000000000000000000, 1.000000000000000000 ) ) ;
#207 = APPROVAL_PERSON_ORGANIZATION ( #135, #31, #69 ) ;
#208 = LINE ( 'NONE', #15, #155 ) ;
#209 = DIRECTION ( 'NONE',  ( 0.000000000000000000, 0.000000000000000000, 1.000000000000000000 ) ) ;
#210 = CIRCLE ( 'NONE', #97, 7.500000000000000000 ) ;
#211 = APPROVAL_DATE_TIME ( #87, #31 ) ;
#212 = CC_DESIGN_PERSON_AND_ORGANIZATION_ASSIGNMENT ( #42, #221, ( #193 ) ) ;
#213 = AXIS2_PLACEMENT_3D ( 'NONE', #132, #206, #32 ) ;
#214 = CC_DESIGN_PERSON_AND_ORGANIZATION_ASSIGNMENT ( #124, #27, ( #231 ) ) ;
#215 = ORIENTED_EDGE ( 'NONE', *, *, #71, .T. ) ;
#216 = DATE_TIME_ROLE ( 'creation_date' ) ;
#217 = PERSON_AND_ORGANIZATION ( #174, #139 ) ;
#218 = ORIENTED_EDGE ( 'NONE', *, *, #16, .F. ) ;
#219 = CIRCLE ( 'NONE', #39, 11.00000000000000000 ) ;
#220 = VERTEX_POINT ( 'NONE', #190 ) ;
#221 = PERSON_AND_ORGANIZATION_ROLE ( 'design_supplier' ) ;
#222 = DIRECTION ( 'NONE',  ( -1.000000000000000000, 0.000000000000000000, 0.000000000000000000 ) ) ;
#223 = CYLINDRICAL_SURFACE ( 'NONE', #60, 11.00000000000000000 ) ;
#224 = COORDINATED_UNIVERSAL_TIME_OFFSET ( 1, 0, .AHEAD. ) ;
#225 = AXIS2_PLACEMENT_3D ( 'NONE', #204, #52, #149 ) ;
#226 = CARTESIAN_POINT ( 'NONE',  ( 0.000000000000000000, 0.000000000000000000, 7.000000000000000000 ) ) ;
#227 = DIRECTION ( 'NONE',  ( 0.000000000000000000, 0.000000000000000000, 1.000000000000000000 ) ) ;
#228 = FACE_OUTER_BOUND ( 'NONE', #80, .T. ) ;
#229 = DIRECTION ( 'NONE',  ( 1.000000000000000000, 0.000000000000000000, 0.000000000000000000 ) ) ;
#230 = EDGE_CURVE ( 'NONE', #255, #182, #156, .T. ) ;
#231 = SECURITY_CLASSIFICATION ( '', '', #6 ) ;
#232 = EDGE_LOOP ( 'NONE', ( #45, #63 ) ) ;
#233 = ORIENTED_EDGE ( 'NONE', *, *, #88, .T. ) ;
#234 = AXIS2_PLACEMENT_3D ( 'NONE', #113, #245, #37 ) ;
#235 = EDGE_LOOP ( 'NONE', ( #104, #4, #138, #218 ) ) ;
#236 = APPROVAL ( #2, 'NEURÈENÝ' ) ;
#237 = EDGE_LOOP ( 'NONE', ( #215, #145 ) ) ;
#238 = VECTOR ( 'NONE', #134, 1000.000000000000000 ) ;
#239 = DIRECTION ( 'NONE',  ( 0.000000000000000000, 0.000000000000000000, 1.000000000000000000 ) ) ;
#240 = DIRECTION ( 'NONE',  ( -0.000000000000000000, -0.000000000000000000, -1.000000000000000000 ) ) ;
#241 = PERSON_AND_ORGANIZATION_ROLE ( 'creator' ) ;
#242 = DIRECTION ( 'NONE',  ( -0.000000000000000000, -0.000000000000000000, -1.000000000000000000 ) ) ;
#243 =( NAMED_UNIT ( * ) SI_UNIT ( $, .STERADIAN. ) SOLID_ANGLE_UNIT ( ) );
#244 = AXIS2_PLACEMENT_3D ( 'NONE', #226, #70, #33 ) ;
#245 = DIRECTION ( 'NONE',  ( 0.000000000000000000, 0.000000000000000000, 1.000000000000000000 ) ) ;
#246 = FACE_OUTER_BOUND ( 'NONE', #82, .T. ) ;
#247 = DIRECTION ( 'NONE',  ( 1.000000000000000000, 0.000000000000000000, 0.000000000000000000 ) ) ;
#248 = PRODUCT ( 'ed9b', 'ed9b', '', ( #91 ) ) ;
#249 = DESIGN_CONTEXT ( 'detailed design', #253, 'design' ) ;
#250 = ADVANCED_FACE ( 'NONE', ( #154 ), #8, .T. ) ;
#251 = AXIS2_PLACEMENT_3D ( 'NONE', #14, #38, #247 ) ;
#252 = APPROVAL_PERSON_ORGANIZATION ( #48, #236, #102 ) ;
#253 = APPLICATION_CONTEXT ( 'configuration controlled 3d designs of mechanical parts and assemblies' ) ;
#254 = PRODUCT_DEFINITION ( 'NEZNÁMÝ', '', #193, #249 ) ;
#255 = VERTEX_POINT ( 'NONE', #55 ) ;
ENDSEC;
END-ISO-10303-21;
