ISO-10303-21;
HEADER;
FILE_DESCRIPTION (( 'STEP AP203' ),
    '1' );
FILE_NAME ('1588.STEP',
    '2022-07-07T17:41:22',
    ( '' ),
    ( '' ),
    'SwSTEP 2.0',
    'SolidWorks 2019',
    '' );
FILE_SCHEMA (( 'CONFIG_CONTROL_DESIGN' ));
ENDSEC;

DATA;
#1 = DIRECTION ( 'NONE',  ( 0.000000000000000000, 0.000000000000000000, 1.000000000000000000 ) ) ;
#2 = VECTOR ( 'NONE', #66, 1000.000000000000000 ) ;
#3 = FACE_OUTER_BOUND ( 'NONE', #166, .T. ) ;
#4 = CIRCLE ( 'NONE', #43, 6.000000000000000888 ) ;
#5 = LINE ( 'NONE', #117, #205 ) ;
#6 = CALENDAR_DATE ( 2022, 7, 7 ) ;
#7 = ORIENTED_EDGE ( 'NONE', *, *, #109, .F. ) ;
#8 = CARTESIAN_POINT ( 'NONE',  ( 0.000000000000000000, 0.000000000000000000, 5.000000000000000000 ) ) ;
#9 = ADVANCED_FACE ( 'NONE', ( #88 ), #244, .T. ) ;
#10 = EDGE_LOOP ( 'NONE', ( #179, #245, #186, #65 ) ) ;
#11 = PRODUCT ( '1588', '1588', '', ( #98 ) ) ;
#12 = DIRECTION ( 'NONE',  ( -1.000000000000000000, 0.000000000000000000, 0.000000000000000000 ) ) ;
#13 = EDGE_CURVE ( 'NONE', #75, #185, #189, .T. ) ;
#14 = DIRECTION ( 'NONE',  ( 1.000000000000000000, 0.000000000000000000, 0.000000000000000000 ) ) ;
#15 = ORIENTED_EDGE ( 'NONE', *, *, #253, .T. ) ;
#16 = CIRCLE ( 'NONE', #149, 6.000000000000000888 ) ;
#17 = SHAPE_DEFINITION_REPRESENTATION ( #182, #239 ) ;
#18 = APPROVAL_PERSON_ORGANIZATION ( #83, #248, #52 ) ;
#19 = PRODUCT_RELATED_PRODUCT_CATEGORY ( 'detail', '', ( #11 ) ) ;
#20 = DIRECTION ( 'NONE',  ( 0.000000000000000000, 0.000000000000000000, 1.000000000000000000 ) ) ;
#21 = DATE_TIME_ROLE ( 'creation_date' ) ;
#22 = CARTESIAN_POINT ( 'NONE',  ( 6.000000000000000888, 7.347880794884120722E-16, 5.000000000000000000 ) ) ;
#23 = FACE_OUTER_BOUND ( 'NONE', #86, .T. ) ;
#24 = CARTESIAN_POINT ( 'NONE',  ( 6.000000000000000888, 7.347880794884120722E-16, 0.000000000000000000 ) ) ;
#25 = CC_DESIGN_PERSON_AND_ORGANIZATION_ASSIGNMENT ( #241, #157, ( #41 ) ) ;
#26 = CARTESIAN_POINT ( 'NONE',  ( -3.000000000000000444, 0.000000000000000000, 105.0000000000000142 ) ) ;
#27 = COORDINATED_UNIVERSAL_TIME_OFFSET ( 1, 0, .AHEAD. ) ;
#28 = DIRECTION ( 'NONE',  ( 1.000000000000000000, 0.000000000000000000, 0.000000000000000000 ) ) ;
#29 = APPROVAL_ROLE ( '' ) ;
#30 = DIRECTION ( 'NONE',  ( -0.000000000000000000, -0.000000000000000000, -1.000000000000000000 ) ) ;
#31 = ORIENTED_EDGE ( 'NONE', *, *, #207, .T. ) ;
#32 = CC_DESIGN_DATE_AND_TIME_ASSIGNMENT ( #72, #21, ( #69 ) ) ;
#33 = LOCAL_TIME ( 19, 41, 22.00000000000000000, #238 ) ;
#34 = CARTESIAN_POINT ( 'NONE',  ( 0.000000000000000000, 0.000000000000000000, 105.0000000000000142 ) ) ;
#35 = APPROVAL_STATUS ( 'not_yet_approved' ) ;
#36 = CARTESIAN_POINT ( 'NONE',  ( 0.000000000000000000, 0.000000000000000000, 0.000000000000000000 ) ) ;
#37 = PERSON_AND_ORGANIZATION ( #215, #101 ) ;
#38 = DIRECTION ( 'NONE',  ( -1.000000000000000000, 0.000000000000000000, 0.000000000000000000 ) ) ;
#39 = COORDINATED_UNIVERSAL_TIME_OFFSET ( 1, 0, .AHEAD. ) ;
#40 = CARTESIAN_POINT ( 'NONE',  ( 0.000000000000000000, 0.000000000000000000, 5.000000000000000000 ) ) ;
#41 = PRODUCT_DEFINITION_FORMATION_WITH_SPECIFIED_SOURCE ( 'LIBOVOLNÝ', '', #11, .NOT_KNOWN. ) ;
#42 = DATE_AND_TIME ( #6, #197 ) ;
#43 = AXIS2_PLACEMENT_3D ( 'NONE', #174, #216, #177 ) ;
#44 = EDGE_LOOP ( 'NONE', ( #125, #102 ) ) ;
#45 = ORIENTED_EDGE ( 'NONE', *, *, #74, .F. ) ;
#46 = EDGE_LOOP ( 'NONE', ( #7, #183, #142, #45 ) ) ;
#47 = ORIENTED_EDGE ( 'NONE', *, *, #253, .F. ) ;
#48 = EDGE_LOOP ( 'NONE', ( #242, #246, #31, #47 ) ) ;
#49 = ORIENTED_EDGE ( 'NONE', *, *, #109, .T. ) ;
#50 = CC_DESIGN_APPROVAL ( #148, ( #41 ) ) ;
#51 = DIRECTION ( 'NONE',  ( 1.000000000000000000, 0.000000000000000000, 0.000000000000000000 ) ) ;
#52 = APPROVAL_ROLE ( '' ) ;
#53 = DIRECTION ( 'NONE',  ( 0.000000000000000000, 0.000000000000000000, 1.000000000000000000 ) ) ;
#54 = APPROVAL_DATE_TIME ( #76, #148 ) ;
#55 = VERTEX_POINT ( 'NONE', #26 ) ;
#56 = DIRECTION ( 'NONE',  ( 1.000000000000000000, 0.000000000000000000, 0.000000000000000000 ) ) ;
#57 = PERSON_AND_ORGANIZATION ( #215, #101 ) ;
#58 = DIRECTION ( 'NONE',  ( 1.000000000000000000, 0.000000000000000000, 0.000000000000000000 ) ) ;
#59 = CARTESIAN_POINT ( 'NONE',  ( 0.000000000000000000, 0.000000000000000000, 5.000000000000000000 ) ) ;
#60 = EDGE_CURVE ( 'NONE', #55, #252, #234, .T. ) ;
#61 = CARTESIAN_POINT ( 'NONE',  ( 0.000000000000000000, 0.000000000000000000, 5.000000000000000000 ) ) ;
#62 = EDGE_LOOP ( 'NONE', ( #81, #221, #15, #106 ) ) ;
#63 = CC_DESIGN_PERSON_AND_ORGANIZATION_ASSIGNMENT ( #37, #118, ( #41 ) ) ;
#64 = APPROVAL_STATUS ( 'not_yet_approved' ) ;
#65 = ORIENTED_EDGE ( 'NONE', *, *, #168, .T. ) ;
#66 = DIRECTION ( 'NONE',  ( -0.000000000000000000, -0.000000000000000000, -1.000000000000000000 ) ) ;
#67 = CC_DESIGN_APPROVAL ( #139, ( #176 ) ) ;
#68 = CALENDAR_DATE ( 2022, 7, 7 ) ;
#69 = PRODUCT_DEFINITION ( 'NEZNÁMÝ', '', #41, #210 ) ;
#70 = LOCAL_TIME ( 19, 41, 22.00000000000000000, #80 ) ;
#71 = DIRECTION ( 'NONE',  ( 0.000000000000000000, 0.000000000000000000, 1.000000000000000000 ) ) ;
#72 = DATE_AND_TIME ( #175, #70 ) ;
#73 = CARTESIAN_POINT ( 'NONE',  ( -6.000000000000000888, 0.000000000000000000, 5.000000000000000000 ) ) ;
#74 = EDGE_CURVE ( 'NONE', #55, #185, #85, .T. ) ;
#75 = VERTEX_POINT ( 'NONE', #87 ) ;
#76 = DATE_AND_TIME ( #173, #33 ) ;
#77 = VECTOR ( 'NONE', #30, 1000.000000000000000 ) ;
#78 = CARTESIAN_POINT ( 'NONE',  ( 0.000000000000000000, 0.000000000000000000, 5.000000000000000000 ) ) ;
#79 = CARTESIAN_POINT ( 'NONE',  ( 0.000000000000000000, 0.000000000000000000, 5.000000000000000000 ) ) ;
#80 = COORDINATED_UNIVERSAL_TIME_OFFSET ( 1, 0, .AHEAD. ) ;
#81 = ORIENTED_EDGE ( 'NONE', *, *, #93, .F. ) ;
#82 = DIRECTION ( 'NONE',  ( -0.000000000000000000, -0.000000000000000000, -1.000000000000000000 ) ) ;
#83 = PERSON_AND_ORGANIZATION ( #215, #101 ) ;
#84 = ADVANCED_FACE ( 'NONE', ( #143 ), #104, .T. ) ;
#85 = LINE ( 'NONE', #105, #2 ) ;
#86 = EDGE_LOOP ( 'NONE', ( #227, #49 ) ) ;
#87 = CARTESIAN_POINT ( 'NONE',  ( 3.000000000000000444, 3.673940397442060361E-16, 5.000000000000000000 ) ) ;
#88 = FACE_OUTER_BOUND ( 'NONE', #46, .T. ) ;
#89 = AXIS2_PLACEMENT_3D ( 'NONE', #218, #180, #235 ) ;
#90 = LOCAL_TIME ( 19, 41, 22.00000000000000000, #27 ) ;
#91 = AXIS2_PLACEMENT_3D ( 'NONE', #126, #200, #161 ) ;
#92 = LOCAL_TIME ( 19, 41, 22.00000000000000000, #39 ) ;
#93 = EDGE_CURVE ( 'NONE', #163, #124, #225, .T. ) ;
#94 = DIRECTION ( 'NONE',  ( 0.000000000000000000, 0.000000000000000000, 1.000000000000000000 ) ) ;
#95 = APPROVAL_ROLE ( '' ) ;
#96 = ADVANCED_FACE ( 'NONE', ( #247, #3 ), #255, .T. ) ;
#97 = CARTESIAN_POINT ( 'NONE',  ( -3.000000000000000444, 0.000000000000000000, 5.000000000000000000 ) ) ;
#98 = MECHANICAL_CONTEXT ( 'NONE', #211, 'mechanical' ) ;
#99 = DIRECTION ( 'NONE',  ( 0.000000000000000000, 0.000000000000000000, 1.000000000000000000 ) ) ;
#100 = COORDINATED_UNIVERSAL_TIME_OFFSET ( 1, 0, .AHEAD. ) ;
#101 = ORGANIZATION ( 'NEURÈENÝ', 'NEURÈENÝ', '' ) ;
#102 = ORIENTED_EDGE ( 'NONE', *, *, #13, .F. ) ;
#103 = DIRECTION ( 'NONE',  ( 1.000000000000000000, 0.000000000000000000, -0.000000000000000000 ) ) ;
#104 = CYLINDRICAL_SURFACE ( 'NONE', #229, 3.000000000000000444 ) ;
#105 = CARTESIAN_POINT ( 'NONE',  ( -3.000000000000000444, 0.000000000000000000, 105.0000000000000142 ) ) ;
#106 = ORIENTED_EDGE ( 'NONE', *, *, #147, .T. ) ;
#107 = ORIENTED_EDGE ( 'NONE', *, *, #147, .F. ) ;
#108 = CC_DESIGN_PERSON_AND_ORGANIZATION_ASSIGNMENT ( #57, #136, ( #176 ) ) ;
#109 = EDGE_CURVE ( 'NONE', #252, #55, #249, .T. ) ;
#110 = CC_DESIGN_PERSON_AND_ORGANIZATION_ASSIGNMENT ( #195, #220, ( #69 ) ) ;
#111 = CC_DESIGN_SECURITY_CLASSIFICATION ( #176, ( #41 ) ) ;
#112 = AXIS2_PLACEMENT_3D ( 'NONE', #61, #71, #58 ) ;
#113 = AXIS2_PLACEMENT_3D ( 'NONE', #158, #172, #103 ) ;
#114 = ADVANCED_FACE ( 'NONE', ( #23 ), #156, .T. ) ;
#115 = DIRECTION ( 'NONE',  ( 1.000000000000000000, 0.000000000000000000, 0.000000000000000000 ) ) ;
#116 =( NAMED_UNIT ( * ) SI_UNIT ( $, .STERADIAN. ) SOLID_ANGLE_UNIT ( ) );
#117 = CARTESIAN_POINT ( 'NONE',  ( 3.000000000000000444, 3.673940397442060361E-16, 105.0000000000000142 ) ) ;
#118 = PERSON_AND_ORGANIZATION_ROLE ( 'design_supplier' ) ;
#119 = FACE_OUTER_BOUND ( 'NONE', #62, .T. ) ;
#120 = PERSON_AND_ORGANIZATION_ROLE ( 'design_owner' ) ;
#121 = AXIS2_PLACEMENT_3D ( 'NONE', #233, #1, #134 ) ;
#122 = CYLINDRICAL_SURFACE ( 'NONE', #230, 6.000000000000000888 ) ;
#123 = APPLICATION_PROTOCOL_DEFINITION ( 'international standard', 'config_control_design', 1994, #211 ) ;
#124 = VERTEX_POINT ( 'NONE', #24 ) ;
#125 = ORIENTED_EDGE ( 'NONE', *, *, #168, .F. ) ;
#126 = CARTESIAN_POINT ( 'NONE',  ( 0.000000000000000000, 0.000000000000000000, 105.0000000000000142 ) ) ;
#127 = ADVANCED_FACE ( 'NONE', ( #133 ), #122, .T. ) ;
#128 = ORIENTED_EDGE ( 'NONE', *, *, #207, .F. ) ;
#129 = ORIENTED_EDGE ( 'NONE', *, *, #187, .T. ) ;
#130 = AXIS2_PLACEMENT_3D ( 'NONE', #34, #53, #115 ) ;
#131 = APPROVAL_PERSON_ORGANIZATION ( #152, #148, #95 ) ;
#132 = CARTESIAN_POINT ( 'NONE',  ( -6.000000000000000888, 0.000000000000000000, 5.000000000000000000 ) ) ;
#133 = FACE_OUTER_BOUND ( 'NONE', #48, .T. ) ;
#134 = DIRECTION ( 'NONE',  ( 1.000000000000000000, 0.000000000000000000, 0.000000000000000000 ) ) ;
#135 = DIRECTION ( 'NONE',  ( 0.000000000000000000, 0.000000000000000000, 1.000000000000000000 ) ) ;
#136 = PERSON_AND_ORGANIZATION_ROLE ( 'classification_officer' ) ;
#137 = CARTESIAN_POINT ( 'NONE',  ( 3.000000000000000444, 3.673940397442060361E-16, 105.0000000000000142 ) ) ;
#138 = DIRECTION ( 'NONE',  ( 0.000000000000000000, 0.000000000000000000, 1.000000000000000000 ) ) ;
#139 = APPROVAL ( #64, 'NEURÈENÝ' ) ;
#140 = MANIFOLD_SOLID_BREP ( 'Pøidat vysunutím3', #170 ) ;
#141 = VERTEX_POINT ( 'NONE', #73 ) ;
#142 = ORIENTED_EDGE ( 'NONE', *, *, #13, .T. ) ;
#143 = FACE_OUTER_BOUND ( 'NONE', #10, .T. ) ;
#144 = DIRECTION ( 'NONE',  ( -0.000000000000000000, -0.000000000000000000, -1.000000000000000000 ) ) ;
#145 = CC_DESIGN_APPROVAL ( #248, ( #69 ) ) ;
#146 = UNCERTAINTY_MEASURE_WITH_UNIT (LENGTH_MEASURE( 1.000000000000000082E-05 ), #199, 'distance_accuracy_value', 'NONE');
#147 = EDGE_CURVE ( 'NONE', #222, #124, #16, .T. ) ;
#148 = APPROVAL ( #35, 'NEURÈENÝ' ) ;
#149 = AXIS2_PLACEMENT_3D ( 'NONE', #36, #99, #56 ) ;
#150 = CIRCLE ( 'NONE', #112, 6.000000000000000888 ) ;
#151 = CARTESIAN_POINT ( 'NONE',  ( -6.000000000000000888, 0.000000000000000000, 0.000000000000000000 ) ) ;
#152 = PERSON_AND_ORGANIZATION ( #215, #101 ) ;
#153 = DIRECTION ( 'NONE',  ( 1.000000000000000000, 0.000000000000000000, -0.000000000000000000 ) ) ;
#154 = AXIS2_PLACEMENT_3D ( 'NONE', #223, #164, #28 ) ;
#155 = CIRCLE ( 'NONE', #196, 3.000000000000000444 ) ;
#156 = PLANE ( 'NONE',  #89 ) ;
#157 = PERSON_AND_ORGANIZATION_ROLE ( 'creator' ) ;
#158 = CARTESIAN_POINT ( 'NONE',  ( 0.000000000000000000, 0.000000000000000000, 5.000000000000000000 ) ) ;
#159 = CALENDAR_DATE ( 2022, 7, 7 ) ;
#160 = ADVANCED_FACE ( 'NONE', ( #119 ), #192, .T. ) ;
#161 = DIRECTION ( 'NONE',  ( -1.000000000000000000, 0.000000000000000000, 0.000000000000000000 ) ) ;
#162 = DIRECTION ( 'NONE',  ( -0.000000000000000000, -0.000000000000000000, -1.000000000000000000 ) ) ;
#163 = VERTEX_POINT ( 'NONE', #22 ) ;
#164 = DIRECTION ( 'NONE',  ( 0.000000000000000000, 0.000000000000000000, 1.000000000000000000 ) ) ;
#165 = PERSON_AND_ORGANIZATION ( #215, #101 ) ;
#166 = EDGE_LOOP ( 'NONE', ( #129, #202 ) ) ;
#167 = CIRCLE ( 'NONE', #169, 6.000000000000000888 ) ;
#168 = EDGE_CURVE ( 'NONE', #185, #75, #155, .T. ) ;
#169 = AXIS2_PLACEMENT_3D ( 'NONE', #40, #94, #194 ) ;
#170 = CLOSED_SHELL ( 'NONE', ( #9, #127, #160, #96, #191, #84, #114 ) ) ;
#171 = APPROVAL_STATUS ( 'not_yet_approved' ) ;
#172 = DIRECTION ( 'NONE',  ( 0.000000000000000000, 0.000000000000000000, 1.000000000000000000 ) ) ;
#173 = CALENDAR_DATE ( 2022, 7, 7 ) ;
#174 = CARTESIAN_POINT ( 'NONE',  ( 0.000000000000000000, 0.000000000000000000, 0.000000000000000000 ) ) ;
#175 = CALENDAR_DATE ( 2022, 7, 7 ) ;
#176 = SECURITY_CLASSIFICATION ( '', '', #193 ) ;
#177 = DIRECTION ( 'NONE',  ( 1.000000000000000000, 0.000000000000000000, 0.000000000000000000 ) ) ;
#178 = APPLICATION_PROTOCOL_DEFINITION ( 'international standard', 'config_control_design', 1994, #184 ) ;
#179 = ORIENTED_EDGE ( 'NONE', *, *, #209, .F. ) ;
#180 = DIRECTION ( 'NONE',  ( 0.000000000000000000, 0.000000000000000000, 1.000000000000000000 ) ) ;
#181 = CARTESIAN_POINT ( 'NONE',  ( 0.000000000000000000, 0.000000000000000000, 105.0000000000000142 ) ) ;
#182 = PRODUCT_DEFINITION_SHAPE ( 'NONE', 'NONE',  #69 ) ;
#183 = ORIENTED_EDGE ( 'NONE', *, *, #209, .T. ) ;
#184 = APPLICATION_CONTEXT ( 'configuration controlled 3d designs of mechanical parts and assemblies' ) ;
#185 = VERTEX_POINT ( 'NONE', #97 ) ;
#186 = ORIENTED_EDGE ( 'NONE', *, *, #74, .T. ) ;
#187 = EDGE_CURVE ( 'NONE', #141, #163, #167, .T. ) ;
#188 = VECTOR ( 'NONE', #213, 1000.000000000000000 ) ;
#189 = CIRCLE ( 'NONE', #208, 3.000000000000000444 ) ;
#190 = CARTESIAN_POINT ( 'NONE',  ( 0.000000000000000000, 0.000000000000000000, 0.000000000000000000 ) ) ;
#191 = ADVANCED_FACE ( 'NONE', ( #243 ), #198, .F. ) ;
#192 = CYLINDRICAL_SURFACE ( 'NONE', #251, 6.000000000000000888 ) ;
#193 = SECURITY_CLASSIFICATION_LEVEL ( 'unclassified' ) ;
#194 = DIRECTION ( 'NONE',  ( 1.000000000000000000, 0.000000000000000000, 0.000000000000000000 ) ) ;
#195 = PERSON_AND_ORGANIZATION ( #215, #101 ) ;
#196 = AXIS2_PLACEMENT_3D ( 'NONE', #78, #135, #51 ) ;
#197 = LOCAL_TIME ( 19, 41, 22.00000000000000000, #100 ) ;
#198 = PLANE ( 'NONE',  #228 ) ;
#199 =( LENGTH_UNIT ( ) NAMED_UNIT ( * ) SI_UNIT ( .MILLI., .METRE. ) );
#200 = DIRECTION ( 'NONE',  ( -0.000000000000000000, -0.000000000000000000, -1.000000000000000000 ) ) ;
#201 = CC_DESIGN_PERSON_AND_ORGANIZATION_ASSIGNMENT ( #214, #120, ( #11 ) ) ;
#202 = ORIENTED_EDGE ( 'NONE', *, *, #217, .T. ) ;
#203 = DATE_TIME_ROLE ( 'classification_date' ) ;
#204 = CARTESIAN_POINT ( 'NONE',  ( 6.000000000000000888, 7.347880794884120722E-16, 5.000000000000000000 ) ) ;
#205 = VECTOR ( 'NONE', #240, 1000.000000000000000 ) ;
#206 = EDGE_LOOP ( 'NONE', ( #107, #128 ) ) ;
#207 = EDGE_CURVE ( 'NONE', #124, #222, #4, .T. ) ;
#208 = AXIS2_PLACEMENT_3D ( 'NONE', #59, #138, #14 ) ;
#209 = EDGE_CURVE ( 'NONE', #252, #75, #5, .T. ) ;
#210 = DESIGN_CONTEXT ( 'detailed design', #184, 'design' ) ;
#211 = APPLICATION_CONTEXT ( 'configuration controlled 3d designs of mechanical parts and assemblies' ) ;
#212 = CC_DESIGN_DATE_AND_TIME_ASSIGNMENT ( #42, #203, ( #176 ) ) ;
#213 = DIRECTION ( 'NONE',  ( -0.000000000000000000, -0.000000000000000000, -1.000000000000000000 ) ) ;
#214 = PERSON_AND_ORGANIZATION ( #215, #101 ) ;
#215 = PERSON ( 'NEURÈENÝ', 'NEURÈENÝ', 'NEURÈENÝ', ('NEURÈENÝ'), ('NEURÈENÝ'), ('NEURÈENÝ') ) ;
#216 = DIRECTION ( 'NONE',  ( 0.000000000000000000, 0.000000000000000000, 1.000000000000000000 ) ) ;
#217 = EDGE_CURVE ( 'NONE', #163, #141, #150, .T. ) ;
#218 = CARTESIAN_POINT ( 'NONE',  ( 0.000000000000000000, 0.000000000000000000, 105.0000000000000142 ) ) ;
#219 = DATE_AND_TIME ( #159, #92 ) ;
#220 = PERSON_AND_ORGANIZATION_ROLE ( 'creator' ) ;
#221 = ORIENTED_EDGE ( 'NONE', *, *, #187, .F. ) ;
#222 = VERTEX_POINT ( 'NONE', #151 ) ;
#223 = CARTESIAN_POINT ( 'NONE',  ( 0.000000000000000000, 0.000000000000000000, 105.0000000000000142 ) ) ;
#224 = APPROVAL_DATE_TIME ( #250, #139 ) ;
#225 = LINE ( 'NONE', #204, #77 ) ;
#226 = APPROVAL_PERSON_ORGANIZATION ( #165, #139, #29 ) ;
#227 = ORIENTED_EDGE ( 'NONE', *, *, #60, .T. ) ;
#228 = AXIS2_PLACEMENT_3D ( 'NONE', #190, #20, #153 ) ;
#229 = AXIS2_PLACEMENT_3D ( 'NONE', #181, #144, #12 ) ;
#230 = AXIS2_PLACEMENT_3D ( 'NONE', #8, #82, #38 ) ;
#231 =( GEOMETRIC_REPRESENTATION_CONTEXT ( 3 ) GLOBAL_UNCERTAINTY_ASSIGNED_CONTEXT ( ( #146 ) ) GLOBAL_UNIT_ASSIGNED_CONTEXT ( ( #199, #236, #116 ) ) REPRESENTATION_CONTEXT ( 'NONE', 'WORKASPACE' ) );
#232 = LINE ( 'NONE', #132, #188 ) ;
#233 = CARTESIAN_POINT ( 'NONE',  ( 0.000000000000000000, 0.000000000000000000, 0.000000000000000000 ) ) ;
#234 = CIRCLE ( 'NONE', #154, 3.000000000000000444 ) ;
#235 = DIRECTION ( 'NONE',  ( 1.000000000000000000, 0.000000000000000000, -0.000000000000000000 ) ) ;
#236 =( NAMED_UNIT ( * ) PLANE_ANGLE_UNIT ( ) SI_UNIT ( $, .RADIAN. ) );
#237 = DIRECTION ( 'NONE',  ( -1.000000000000000000, 0.000000000000000000, 0.000000000000000000 ) ) ;
#238 = COORDINATED_UNIVERSAL_TIME_OFFSET ( 1, 0, .AHEAD. ) ;
#239 = ADVANCED_BREP_SHAPE_REPRESENTATION ( '1588', ( #140, #121 ), #231 ) ;
#240 = DIRECTION ( 'NONE',  ( -0.000000000000000000, -0.000000000000000000, -1.000000000000000000 ) ) ;
#241 = PERSON_AND_ORGANIZATION ( #215, #101 ) ;
#242 = ORIENTED_EDGE ( 'NONE', *, *, #217, .F. ) ;
#243 = FACE_OUTER_BOUND ( 'NONE', #206, .T. ) ;
#244 = CYLINDRICAL_SURFACE ( 'NONE', #91, 3.000000000000000444 ) ;
#245 = ORIENTED_EDGE ( 'NONE', *, *, #60, .F. ) ;
#246 = ORIENTED_EDGE ( 'NONE', *, *, #93, .T. ) ;
#247 = FACE_BOUND ( 'NONE', #44, .T. ) ;
#248 = APPROVAL ( #171, 'NEURÈENÝ' ) ;
#249 = CIRCLE ( 'NONE', #130, 3.000000000000000444 ) ;
#250 = DATE_AND_TIME ( #68, #90 ) ;
#251 = AXIS2_PLACEMENT_3D ( 'NONE', #79, #162, #237 ) ;
#252 = VERTEX_POINT ( 'NONE', #137 ) ;
#253 = EDGE_CURVE ( 'NONE', #141, #222, #232, .T. ) ;
#254 = APPROVAL_DATE_TIME ( #219, #248 ) ;
#255 = PLANE ( 'NONE',  #113 ) ;
ENDSEC;
END-ISO-10303-21;
