ISO-10303-21;
HEADER;
FILE_DESCRIPTION (( 'STEP AP203' ),
    '1' );
FILE_NAME ('a88e.STEP',
    '2022-07-07T18:00:08',
    ( '' ),
    ( '' ),
    'SwSTEP 2.0',
    'SolidWorks 2019',
    '' );
FILE_SCHEMA (( 'CONFIG_CONTROL_DESIGN' ));
ENDSEC;

DATA;
#1 = DIRECTION ( 'NONE',  ( 0.000000000000000000, 0.000000000000000000, 1.000000000000000000 ) ) ;
#2 = DIRECTION ( 'NONE',  ( 1.000000000000000000, 0.000000000000000000, 0.000000000000000000 ) ) ;
#3 = CARTESIAN_POINT ( 'NONE',  ( 0.000000000000000000, 0.000000000000000000, 162.0000000000000000 ) ) ;
#4 = CC_DESIGN_DATE_AND_TIME_ASSIGNMENT ( #90, #110, ( #217 ) ) ;
#5 = CARTESIAN_POINT ( 'NONE',  ( 0.000000000000000000, 0.000000000000000000, 0.000000000000000000 ) ) ;
#6 = AXIS2_PLACEMENT_3D ( 'NONE', #30, #9, #164 ) ;
#7 = CARTESIAN_POINT ( 'NONE',  ( 1.100000000000000089, 1.347111479062088503E-16, 2.000000000000000000 ) ) ;
#8 = DIRECTION ( 'NONE',  ( 0.000000000000000000, 0.000000000000000000, 1.000000000000000000 ) ) ;
#9 = DIRECTION ( 'NONE',  ( -0.000000000000000000, -0.000000000000000000, -1.000000000000000000 ) ) ;
#10 = DATE_AND_TIME ( #169, #179 ) ;
#11 = ORIENTED_EDGE ( 'NONE', *, *, #219, .T. ) ;
#12 = APPROVAL_PERSON_ORGANIZATION ( #249, #101, #149 ) ;
#13 = CLOSED_SHELL ( 'NONE', ( #81, #241, #59, #132, #141, #105, #177 ) ) ;
#14 = ORIENTED_EDGE ( 'NONE', *, *, #87, .F. ) ;
#15 = COORDINATED_UNIVERSAL_TIME_OFFSET ( 1, 0, .AHEAD. ) ;
#16 = APPROVAL_DATE_TIME ( #35, #232 ) ;
#17 = EDGE_CURVE ( 'NONE', #148, #48, #171, .T. ) ;
#18 = PRODUCT_DEFINITION_FORMATION_WITH_SPECIFIED_SOURCE ( 'LIBOVOLNÝ', '', #124, .NOT_KNOWN. ) ;
#19 = CARTESIAN_POINT ( 'NONE',  ( 0.000000000000000000, 0.000000000000000000, 162.0000000000000000 ) ) ;
#20 = AXIS2_PLACEMENT_3D ( 'NONE', #202, #28, #106 ) ;
#21 = CARTESIAN_POINT ( 'NONE',  ( -1.100000000000000089, 0.000000000000000000, 162.0000000000000000 ) ) ;
#22 = CC_DESIGN_PERSON_AND_ORGANIZATION_ASSIGNMENT ( #143, #33, ( #18 ) ) ;
#23 = CYLINDRICAL_SURFACE ( 'NONE', #255, 2.000000000000000000 ) ;
#24 = DIRECTION ( 'NONE',  ( -0.000000000000000000, -0.000000000000000000, -1.000000000000000000 ) ) ;
#25 = EDGE_CURVE ( 'NONE', #145, #187, #175, .T. ) ;
#26 = PERSON_AND_ORGANIZATION ( #212, #64 ) ;
#27 = PLANE ( 'NONE',  #111 ) ;
#28 = DIRECTION ( 'NONE',  ( 0.000000000000000000, 0.000000000000000000, 1.000000000000000000 ) ) ;
#29 = APPROVAL_PERSON_ORGANIZATION ( #52, #232, #66 ) ;
#30 = CARTESIAN_POINT ( 'NONE',  ( 0.000000000000000000, 0.000000000000000000, 2.000000000000000000 ) ) ;
#31 = DATE_AND_TIME ( #229, #235 ) ;
#32 = ORIENTED_EDGE ( 'NONE', *, *, #199, .T. ) ;
#33 = PERSON_AND_ORGANIZATION_ROLE ( 'design_supplier' ) ;
#34 = ORIENTED_EDGE ( 'NONE', *, *, #152, .F. ) ;
#35 = DATE_AND_TIME ( #45, #67 ) ;
#36 = LINE ( 'NONE', #216, #139 ) ;
#37 = ORIENTED_EDGE ( 'NONE', *, *, #186, .T. ) ;
#38 = CIRCLE ( 'NONE', #224, 1.100000000000000089 ) ;
#39 = FACE_OUTER_BOUND ( 'NONE', #133, .T. ) ;
#40 = ORIENTED_EDGE ( 'NONE', *, *, #237, .T. ) ;
#41 = AXIS2_PLACEMENT_3D ( 'NONE', #166, #142, #201 ) ;
#42 = AXIS2_PLACEMENT_3D ( 'NONE', #77, #1, #153 ) ;
#43 = DIRECTION ( 'NONE',  ( 1.000000000000000000, 0.000000000000000000, -0.000000000000000000 ) ) ;
#44 = CARTESIAN_POINT ( 'NONE',  ( 0.000000000000000000, 0.000000000000000000, 0.000000000000000000 ) ) ;
#45 = CALENDAR_DATE ( 2022, 7, 7 ) ;
#46 = PRODUCT_DEFINITION_SHAPE ( 'NONE', 'NONE',  #181 ) ;
#47 = DIRECTION ( 'NONE',  ( 0.000000000000000000, 0.000000000000000000, 1.000000000000000000 ) ) ;
#48 = VERTEX_POINT ( 'NONE', #233 ) ;
#49 = PERSON_AND_ORGANIZATION ( #212, #64 ) ;
#50 = APPROVAL_DATE_TIME ( #31, #101 ) ;
#51 = EDGE_LOOP ( 'NONE', ( #222, #205 ) ) ;
#52 = PERSON_AND_ORGANIZATION ( #212, #64 ) ;
#53 = CC_DESIGN_PERSON_AND_ORGANIZATION_ASSIGNMENT ( #49, #208, ( #18 ) ) ;
#54 = DIRECTION ( 'NONE',  ( -1.000000000000000000, 0.000000000000000000, 0.000000000000000000 ) ) ;
#55 = CARTESIAN_POINT ( 'NONE',  ( 1.100000000000000089, 1.347111479062088503E-16, 162.0000000000000000 ) ) ;
#56 = DIRECTION ( 'NONE',  ( -0.000000000000000000, -0.000000000000000000, -1.000000000000000000 ) ) ;
#57 = DIRECTION ( 'NONE',  ( 0.000000000000000000, 0.000000000000000000, 1.000000000000000000 ) ) ;
#58 = LOCAL_TIME ( 20, 0, 8.000000000000000000, #189 ) ;
#59 = ADVANCED_FACE ( 'NONE', ( #39 ), #23, .T. ) ;
#60 = AXIS2_PLACEMENT_3D ( 'NONE', #44, #242, #63 ) ;
#61 = APPLICATION_CONTEXT ( 'configuration controlled 3d designs of mechanical parts and assemblies' ) ;
#62 = PERSON_AND_ORGANIZATION_ROLE ( 'design_owner' ) ;
#63 = DIRECTION ( 'NONE',  ( 1.000000000000000000, 0.000000000000000000, 0.000000000000000000 ) ) ;
#64 = ORGANIZATION ( 'NEURÈENÝ', 'NEURÈENÝ', '' ) ;
#65 = LINE ( 'NONE', #144, #173 ) ;
#66 = APPROVAL_ROLE ( '' ) ;
#67 = LOCAL_TIME ( 20, 0, 8.000000000000000000, #128 ) ;
#68 = CARTESIAN_POINT ( 'NONE',  ( 0.000000000000000000, 0.000000000000000000, 162.0000000000000000 ) ) ;
#69 = ORIENTED_EDGE ( 'NONE', *, *, #83, .T. ) ;
#70 = COORDINATED_UNIVERSAL_TIME_OFFSET ( 1, 0, .AHEAD. ) ;
#71 = AXIS2_PLACEMENT_3D ( 'NONE', #3, #79, #96 ) ;
#72 = ORIENTED_EDGE ( 'NONE', *, *, #99, .F. ) ;
#73 = APPROVAL_ROLE ( '' ) ;
#74 = ORIENTED_EDGE ( 'NONE', *, *, #152, .T. ) ;
#75 = APPROVAL_STATUS ( 'not_yet_approved' ) ;
#76 = ORIENTED_EDGE ( 'NONE', *, *, #83, .F. ) ;
#77 = CARTESIAN_POINT ( 'NONE',  ( 0.000000000000000000, 0.000000000000000000, 2.000000000000000000 ) ) ;
#78 = CARTESIAN_POINT ( 'NONE',  ( 2.000000000000000000, 2.449293598294706414E-16, 2.000000000000000000 ) ) ;
#79 = DIRECTION ( 'NONE',  ( -0.000000000000000000, -0.000000000000000000, -1.000000000000000000 ) ) ;
#80 = PLANE ( 'NONE',  #214 ) ;
#81 = ADVANCED_FACE ( 'NONE', ( #239 ), #154, .T. ) ;
#82 = CARTESIAN_POINT ( 'NONE',  ( 0.000000000000000000, 0.000000000000000000, 2.000000000000000000 ) ) ;
#83 = EDGE_CURVE ( 'NONE', #48, #126, #36, .T. ) ;
#84 = AXIS2_PLACEMENT_3D ( 'NONE', #213, #238, #54 ) ;
#85 = DIRECTION ( 'NONE',  ( 0.000000000000000000, 0.000000000000000000, 1.000000000000000000 ) ) ;
#86 = CARTESIAN_POINT ( 'NONE',  ( -1.100000000000000089, 0.000000000000000000, 2.000000000000000000 ) ) ;
#87 = EDGE_CURVE ( 'NONE', #209, #184, #117, .T. ) ;
#88 = CYLINDRICAL_SURFACE ( 'NONE', #6, 2.000000000000000000 ) ;
#89 = ORIENTED_EDGE ( 'NONE', *, *, #17, .T. ) ;
#90 = DATE_AND_TIME ( #245, #156 ) ;
#91 = COORDINATED_UNIVERSAL_TIME_OFFSET ( 1, 0, .AHEAD. ) ;
#92 = CC_DESIGN_PERSON_AND_ORGANIZATION_ASSIGNMENT ( #26, #62, ( #124 ) ) ;
#93 = APPROVAL_PERSON_ORGANIZATION ( #168, #170, #73 ) ;
#94 = ORIENTED_EDGE ( 'NONE', *, *, #25, .T. ) ;
#95 = DESIGN_CONTEXT ( 'detailed design', #218, 'design' ) ;
#96 = DIRECTION ( 'NONE',  ( -1.000000000000000000, 0.000000000000000000, 0.000000000000000000 ) ) ;
#97 = DIRECTION ( 'NONE',  ( -0.000000000000000000, -0.000000000000000000, -1.000000000000000000 ) ) ;
#98 = FACE_OUTER_BOUND ( 'NONE', #207, .T. ) ;
#99 = EDGE_CURVE ( 'NONE', #145, #209, #38, .T. ) ;
#100 = CYLINDRICAL_SURFACE ( 'NONE', #71, 1.100000000000000089 ) ;
#101 = APPROVAL ( #165, 'NEURÈENÝ' ) ;
#102 = VECTOR ( 'NONE', #174, 1000.000000000000000 ) ;
#103 = CARTESIAN_POINT ( 'NONE',  ( 1.100000000000000089, 1.347111479062088503E-16, 162.0000000000000000 ) ) ;
#104 =( LENGTH_UNIT ( ) NAMED_UNIT ( * ) SI_UNIT ( .MILLI., .METRE. ) );
#105 = ADVANCED_FACE ( 'NONE', ( #98 ), #100, .T. ) ;
#106 = DIRECTION ( 'NONE',  ( 1.000000000000000000, 0.000000000000000000, 0.000000000000000000 ) ) ;
#107 = CARTESIAN_POINT ( 'NONE',  ( 0.000000000000000000, 0.000000000000000000, 0.000000000000000000 ) ) ;
#108 = DIRECTION ( 'NONE',  ( 1.000000000000000000, 0.000000000000000000, 0.000000000000000000 ) ) ;
#109 = ORIENTED_EDGE ( 'NONE', *, *, #17, .F. ) ;
#110 = DATE_TIME_ROLE ( 'classification_date' ) ;
#111 = AXIS2_PLACEMENT_3D ( 'NONE', #68, #8, #43 ) ;
#112 = DATE_AND_TIME ( #251, #58 ) ;
#113 = FACE_OUTER_BOUND ( 'NONE', #250, .T. ) ;
#114 = AXIS2_PLACEMENT_3D ( 'NONE', #135, #85, #163 ) ;
#115 = VERTEX_POINT ( 'NONE', #215 ) ;
#116 = DIRECTION ( 'NONE',  ( 0.000000000000000000, 0.000000000000000000, 1.000000000000000000 ) ) ;
#117 = LINE ( 'NONE', #55, #102 ) ;
#118 = CC_DESIGN_SECURITY_CLASSIFICATION ( #217, ( #18 ) ) ;
#119 = PRODUCT_RELATED_PRODUCT_CATEGORY ( 'detail', '', ( #124 ) ) ;
#120 = CIRCLE ( 'NONE', #41, 1.100000000000000089 ) ;
#121 = DIRECTION ( 'NONE',  ( 1.000000000000000000, 0.000000000000000000, 0.000000000000000000 ) ) ;
#122 = FACE_OUTER_BOUND ( 'NONE', #248, .T. ) ;
#123 = ORIENTED_EDGE ( 'NONE', *, *, #230, .T. ) ;
#124 = PRODUCT ( 'a88e', 'a88e', '', ( #183 ) ) ;
#125 = DIRECTION ( 'NONE',  ( -0.000000000000000000, -0.000000000000000000, -1.000000000000000000 ) ) ;
#126 = VERTEX_POINT ( 'NONE', #155 ) ;
#127 = CIRCLE ( 'NONE', #20, 1.100000000000000089 ) ;
#128 = COORDINATED_UNIVERSAL_TIME_OFFSET ( 1, 0, .AHEAD. ) ;
#129 = ORIENTED_EDGE ( 'NONE', *, *, #199, .F. ) ;
#130 = APPLICATION_PROTOCOL_DEFINITION ( 'international standard', 'config_control_design', 1994, #218 ) ;
#131 = APPROVAL_STATUS ( 'not_yet_approved' ) ;
#132 = ADVANCED_FACE ( 'NONE', ( #236, #197 ), #80, .T. ) ;
#133 = EDGE_LOOP ( 'NONE', ( #129, #34, #69, #150 ) ) ;
#134 = CARTESIAN_POINT ( 'NONE',  ( 0.000000000000000000, 0.000000000000000000, 0.000000000000000000 ) ) ;
#135 = CARTESIAN_POINT ( 'NONE',  ( 0.000000000000000000, 0.000000000000000000, 2.000000000000000000 ) ) ;
#136 = ORIENTED_EDGE ( 'NONE', *, *, #99, .T. ) ;
#137 = CC_DESIGN_PERSON_AND_ORGANIZATION_ASSIGNMENT ( #191, #210, ( #217 ) ) ;
#138 = DIRECTION ( 'NONE',  ( 1.000000000000000000, 0.000000000000000000, -0.000000000000000000 ) ) ;
#139 = VECTOR ( 'NONE', #97, 1000.000000000000000 ) ;
#140 = EDGE_CURVE ( 'NONE', #126, #115, #147, .T. ) ;
#141 = ADVANCED_FACE ( 'NONE', ( #113 ), #176, .F. ) ;
#142 = DIRECTION ( 'NONE',  ( 0.000000000000000000, 0.000000000000000000, 1.000000000000000000 ) ) ;
#143 = PERSON_AND_ORGANIZATION ( #212, #64 ) ;
#144 = CARTESIAN_POINT ( 'NONE',  ( 2.000000000000000000, 2.449293598294706414E-16, 2.000000000000000000 ) ) ;
#145 = VERTEX_POINT ( 'NONE', #172 ) ;
#146 = SECURITY_CLASSIFICATION_LEVEL ( 'unclassified' ) ;
#147 = CIRCLE ( 'NONE', #180, 2.000000000000000000 ) ;
#148 = VERTEX_POINT ( 'NONE', #78 ) ;
#149 = APPROVAL_ROLE ( '' ) ;
#150 = ORIENTED_EDGE ( 'NONE', *, *, #140, .T. ) ;
#151 = SHAPE_DEFINITION_REPRESENTATION ( #46, #178 ) ;
#152 = EDGE_CURVE ( 'NONE', #48, #148, #195, .T. ) ;
#153 = DIRECTION ( 'NONE',  ( 1.000000000000000000, 0.000000000000000000, 0.000000000000000000 ) ) ;
#154 = CYLINDRICAL_SURFACE ( 'NONE', #84, 1.100000000000000089 ) ;
#155 = CARTESIAN_POINT ( 'NONE',  ( -2.000000000000000000, 0.000000000000000000, 0.000000000000000000 ) ) ;
#156 = LOCAL_TIME ( 20, 0, 8.000000000000000000, #91 ) ;
#157 = CARTESIAN_POINT ( 'NONE',  ( 0.000000000000000000, 0.000000000000000000, 2.000000000000000000 ) ) ;
#158 = DIRECTION ( 'NONE',  ( 0.000000000000000000, 0.000000000000000000, 1.000000000000000000 ) ) ;
#159 = UNCERTAINTY_MEASURE_WITH_UNIT (LENGTH_MEASURE( 1.000000000000000082E-05 ), #104, 'distance_accuracy_value', 'NONE');
#160 = APPLICATION_PROTOCOL_DEFINITION ( 'international standard', 'config_control_design', 1994, #61 ) ;
#161 = CC_DESIGN_PERSON_AND_ORGANIZATION_ASSIGNMENT ( #226, #206, ( #181 ) ) ;
#162 = CC_DESIGN_APPROVAL ( #232, ( #217 ) ) ;
#163 = DIRECTION ( 'NONE',  ( 1.000000000000000000, 0.000000000000000000, 0.000000000000000000 ) ) ;
#164 = DIRECTION ( 'NONE',  ( -1.000000000000000000, 0.000000000000000000, 0.000000000000000000 ) ) ;
#165 = APPROVAL_STATUS ( 'not_yet_approved' ) ;
#166 = CARTESIAN_POINT ( 'NONE',  ( 0.000000000000000000, 0.000000000000000000, 2.000000000000000000 ) ) ;
#167 = ORIENTED_EDGE ( 'NONE', *, *, #25, .F. ) ;
#168 = PERSON_AND_ORGANIZATION ( #212, #64 ) ;
#169 = CALENDAR_DATE ( 2022, 7, 7 ) ;
#170 = APPROVAL ( #131, 'NEURÈENÝ' ) ;
#171 = CIRCLE ( 'NONE', #42, 2.000000000000000000 ) ;
#172 = CARTESIAN_POINT ( 'NONE',  ( -1.100000000000000089, 0.000000000000000000, 162.0000000000000000 ) ) ;
#173 = VECTOR ( 'NONE', #125, 1000.000000000000000 ) ;
#174 = DIRECTION ( 'NONE',  ( -0.000000000000000000, -0.000000000000000000, -1.000000000000000000 ) ) ;
#175 = LINE ( 'NONE', #21, #188 ) ;
#176 = PLANE ( 'NONE',  #247 ) ;
#177 = ADVANCED_FACE ( 'NONE', ( #122 ), #27, .T. ) ;
#178 = ADVANCED_BREP_SHAPE_REPRESENTATION ( 'a88e', ( #240, #252 ), #200 ) ;
#179 = LOCAL_TIME ( 20, 0, 8.000000000000000000, #15 ) ;
#180 = AXIS2_PLACEMENT_3D ( 'NONE', #134, #254, #198 ) ;
#181 = PRODUCT_DEFINITION ( 'NEZNÁMÝ', '', #18, #95 ) ;
#182 = FACE_OUTER_BOUND ( 'NONE', #234, .T. ) ;
#183 = MECHANICAL_CONTEXT ( 'NONE', #61, 'mechanical' ) ;
#184 = VERTEX_POINT ( 'NONE', #7 ) ;
#185 = DATE_TIME_ROLE ( 'creation_date' ) ;
#186 = EDGE_CURVE ( 'NONE', #184, #187, #120, .T. ) ;
#187 = VERTEX_POINT ( 'NONE', #86 ) ;
#188 = VECTOR ( 'NONE', #56, 1000.000000000000000 ) ;
#189 = COORDINATED_UNIVERSAL_TIME_OFFSET ( 1, 0, .AHEAD. ) ;
#190 = EDGE_LOOP ( 'NONE', ( #246, #253, #37, #167 ) ) ;
#191 = PERSON_AND_ORGANIZATION ( #212, #64 ) ;
#192 = CC_DESIGN_DATE_AND_TIME_ASSIGNMENT ( #10, #185, ( #181 ) ) ;
#193 = CC_DESIGN_APPROVAL ( #101, ( #18 ) ) ;
#194 = DIRECTION ( 'NONE',  ( 1.000000000000000000, 0.000000000000000000, -0.000000000000000000 ) ) ;
#195 = CIRCLE ( 'NONE', #114, 2.000000000000000000 ) ;
#196 = CIRCLE ( 'NONE', #60, 2.000000000000000000 ) ;
#197 = FACE_OUTER_BOUND ( 'NONE', #203, .T. ) ;
#198 = DIRECTION ( 'NONE',  ( 1.000000000000000000, 0.000000000000000000, 0.000000000000000000 ) ) ;
#199 = EDGE_CURVE ( 'NONE', #148, #115, #65, .T. ) ;
#200 =( GEOMETRIC_REPRESENTATION_CONTEXT ( 3 ) GLOBAL_UNCERTAINTY_ASSIGNED_CONTEXT ( ( #159 ) ) GLOBAL_UNIT_ASSIGNED_CONTEXT ( ( #104, #204, #244 ) ) REPRESENTATION_CONTEXT ( 'NONE', 'WORKASPACE' ) );
#201 = DIRECTION ( 'NONE',  ( 1.000000000000000000, 0.000000000000000000, 0.000000000000000000 ) ) ;
#202 = CARTESIAN_POINT ( 'NONE',  ( 0.000000000000000000, 0.000000000000000000, 2.000000000000000000 ) ) ;
#203 = EDGE_LOOP ( 'NONE', ( #74, #89 ) ) ;
#204 =( NAMED_UNIT ( * ) PLANE_ANGLE_UNIT ( ) SI_UNIT ( $, .RADIAN. ) );
#205 = ORIENTED_EDGE ( 'NONE', *, *, #186, .F. ) ;
#206 = PERSON_AND_ORGANIZATION_ROLE ( 'creator' ) ;
#207 = EDGE_LOOP ( 'NONE', ( #14, #72, #94, #40 ) ) ;
#208 = PERSON_AND_ORGANIZATION_ROLE ( 'creator' ) ;
#209 = VERTEX_POINT ( 'NONE', #103 ) ;
#210 = PERSON_AND_ORGANIZATION_ROLE ( 'classification_officer' ) ;
#211 = DIRECTION ( 'NONE',  ( -1.000000000000000000, 0.000000000000000000, 0.000000000000000000 ) ) ;
#212 = PERSON ( 'NEURÈENÝ', 'NEURÈENÝ', 'NEURÈENÝ', ('NEURÈENÝ'), ('NEURÈENÝ'), ('NEURÈENÝ') ) ;
#213 = CARTESIAN_POINT ( 'NONE',  ( 0.000000000000000000, 0.000000000000000000, 162.0000000000000000 ) ) ;
#214 = AXIS2_PLACEMENT_3D ( 'NONE', #157, #57, #138 ) ;
#215 = CARTESIAN_POINT ( 'NONE',  ( 2.000000000000000000, 2.449293598294706414E-16, 0.000000000000000000 ) ) ;
#216 = CARTESIAN_POINT ( 'NONE',  ( -2.000000000000000000, 0.000000000000000000, 2.000000000000000000 ) ) ;
#217 = SECURITY_CLASSIFICATION ( '', '', #146 ) ;
#218 = APPLICATION_CONTEXT ( 'configuration controlled 3d designs of mechanical parts and assemblies' ) ;
#219 = EDGE_CURVE ( 'NONE', #115, #126, #196, .T. ) ;
#220 = CARTESIAN_POINT ( 'NONE',  ( 0.000000000000000000, 0.000000000000000000, 162.0000000000000000 ) ) ;
#221 = CC_DESIGN_APPROVAL ( #170, ( #181 ) ) ;
#222 = ORIENTED_EDGE ( 'NONE', *, *, #237, .F. ) ;
#223 = APPROVAL_DATE_TIME ( #112, #170 ) ;
#224 = AXIS2_PLACEMENT_3D ( 'NONE', #19, #116, #2 ) ;
#225 = DIRECTION ( 'NONE',  ( 0.000000000000000000, 0.000000000000000000, 1.000000000000000000 ) ) ;
#226 = PERSON_AND_ORGANIZATION ( #212, #64 ) ;
#227 = CIRCLE ( 'NONE', #243, 1.100000000000000089 ) ;
#228 = ORIENTED_EDGE ( 'NONE', *, *, #219, .F. ) ;
#229 = CALENDAR_DATE ( 2022, 7, 7 ) ;
#230 = EDGE_CURVE ( 'NONE', #209, #145, #227, .T. ) ;
#231 = ORIENTED_EDGE ( 'NONE', *, *, #140, .F. ) ;
#232 = APPROVAL ( #75, 'NEURÈENÝ' ) ;
#233 = CARTESIAN_POINT ( 'NONE',  ( -2.000000000000000000, 0.000000000000000000, 2.000000000000000000 ) ) ;
#234 = EDGE_LOOP ( 'NONE', ( #109, #32, #11, #76 ) ) ;
#235 = LOCAL_TIME ( 20, 0, 8.000000000000000000, #70 ) ;
#236 = FACE_BOUND ( 'NONE', #51, .T. ) ;
#237 = EDGE_CURVE ( 'NONE', #187, #184, #127, .T. ) ;
#238 = DIRECTION ( 'NONE',  ( -0.000000000000000000, -0.000000000000000000, -1.000000000000000000 ) ) ;
#239 = FACE_OUTER_BOUND ( 'NONE', #190, .T. ) ;
#240 = MANIFOLD_SOLID_BREP ( 'Pøidat vysunutím3', #13 ) ;
#241 = ADVANCED_FACE ( 'NONE', ( #182 ), #88, .T. ) ;
#242 = DIRECTION ( 'NONE',  ( 0.000000000000000000, 0.000000000000000000, 1.000000000000000000 ) ) ;
#243 = AXIS2_PLACEMENT_3D ( 'NONE', #220, #225, #121 ) ;
#244 =( NAMED_UNIT ( * ) SI_UNIT ( $, .STERADIAN. ) SOLID_ANGLE_UNIT ( ) );
#245 = CALENDAR_DATE ( 2022, 7, 7 ) ;
#246 = ORIENTED_EDGE ( 'NONE', *, *, #230, .F. ) ;
#247 = AXIS2_PLACEMENT_3D ( 'NONE', #5, #158, #194 ) ;
#248 = EDGE_LOOP ( 'NONE', ( #136, #123 ) ) ;
#249 = PERSON_AND_ORGANIZATION ( #212, #64 ) ;
#250 = EDGE_LOOP ( 'NONE', ( #231, #228 ) ) ;
#251 = CALENDAR_DATE ( 2022, 7, 7 ) ;
#252 = AXIS2_PLACEMENT_3D ( 'NONE', #107, #47, #108 ) ;
#253 = ORIENTED_EDGE ( 'NONE', *, *, #87, .T. ) ;
#254 = DIRECTION ( 'NONE',  ( 0.000000000000000000, 0.000000000000000000, 1.000000000000000000 ) ) ;
#255 = AXIS2_PLACEMENT_3D ( 'NONE', #82, #24, #211 ) ;
ENDSEC;
END-ISO-10303-21;
