ISO-10303-21;
HEADER;
FILE_DESCRIPTION (( 'STEP AP203' ),
    '1' );
FILE_NAME ('c159.STEP',
    '2022-07-07T17:05:51',
    ( '' ),
    ( '' ),
    'SwSTEP 2.0',
    'SolidWorks 2019',
    '' );
FILE_SCHEMA (( 'CONFIG_CONTROL_DESIGN' ));
ENDSEC;

DATA;
#1 = PRODUCT_DEFINITION_SHAPE ( 'NONE', 'NONE',  #19 ) ;
#2 = EDGE_LOOP ( 'NONE', ( #8, #5 ) ) ;
#3 = EDGE_LOOP ( 'NONE', ( #185, #208 ) ) ;
#4 = CARTESIAN_POINT ( 'NONE',  ( 8.500000000000000000, 1.040949779275250140E-15, 257.0000000000000000 ) ) ;
#5 = ORIENTED_EDGE ( 'NONE', *, *, #55, .F. ) ;
#6 = CARTESIAN_POINT ( 'NONE',  ( 0.000000000000000000, 0.000000000000000000, 257.0000000000000000 ) ) ;
#7 = EDGE_LOOP ( 'NONE', ( #148, #184, #238, #89 ) ) ;
#8 = ORIENTED_EDGE ( 'NONE', *, *, #100, .F. ) ;
#9 = DIRECTION ( 'NONE',  ( -0.000000000000000000, -0.000000000000000000, -1.000000000000000000 ) ) ;
#10 = EDGE_CURVE ( 'NONE', #240, #142, #180, .T. ) ;
#11 = DIRECTION ( 'NONE',  ( 0.000000000000000000, 0.000000000000000000, 1.000000000000000000 ) ) ;
#12 = MECHANICAL_CONTEXT ( 'NONE', #111, 'mechanical' ) ;
#13 = CARTESIAN_POINT ( 'NONE',  ( -11.00000000000000000, 0.000000000000000000, 0.000000000000000000 ) ) ;
#14 = EDGE_CURVE ( 'NONE', #85, #112, #243, .T. ) ;
#15 = CALENDAR_DATE ( 2022, 7, 7 ) ;
#16 = PERSON_AND_ORGANIZATION ( #205, #20 ) ;
#17 = UNCERTAINTY_MEASURE_WITH_UNIT (LENGTH_MEASURE( 1.000000000000000082E-05 ), #197, 'distance_accuracy_value', 'NONE');
#18 = ADVANCED_BREP_SHAPE_REPRESENTATION ( 'c159', ( #206, #105 ), #52 ) ;
#19 = PRODUCT_DEFINITION ( 'NEZNÁMÝ', '', #204, #173 ) ;
#20 = ORGANIZATION ( 'NEURÈENÝ', 'NEURÈENÝ', '' ) ;
#21 = ADVANCED_FACE ( 'NONE', ( #88 ), #107, .T. ) ;
#22 = CARTESIAN_POINT ( 'NONE',  ( 11.00000000000000000, 1.347111479062088405E-15, 7.000000000000000000 ) ) ;
#23 = ORIENTED_EDGE ( 'NONE', *, *, #55, .T. ) ;
#24 = DIRECTION ( 'NONE',  ( 1.000000000000000000, 0.000000000000000000, 0.000000000000000000 ) ) ;
#25 = ADVANCED_FACE ( 'NONE', ( #43 ), #104, .T. ) ;
#26 = LINE ( 'NONE', #127, #215 ) ;
#27 = APPROVAL ( #118, 'NEURÈENÝ' ) ;
#28 = ORIENTED_EDGE ( 'NONE', *, *, #14, .F. ) ;
#29 = DIRECTION ( 'NONE',  ( -1.000000000000000000, 0.000000000000000000, 0.000000000000000000 ) ) ;
#30 = DIRECTION ( 'NONE',  ( -1.000000000000000000, 0.000000000000000000, 0.000000000000000000 ) ) ;
#31 = DIRECTION ( 'NONE',  ( -0.000000000000000000, -0.000000000000000000, -1.000000000000000000 ) ) ;
#32 = DATE_TIME_ROLE ( 'creation_date' ) ;
#33 = CC_DESIGN_PERSON_AND_ORGANIZATION_ASSIGNMENT ( #49, #214, ( #204 ) ) ;
#34 = AXIS2_PLACEMENT_3D ( 'NONE', #246, #129, #209 ) ;
#35 = COORDINATED_UNIVERSAL_TIME_OFFSET ( 1, 0, .AHEAD. ) ;
#36 = SECURITY_CLASSIFICATION_LEVEL ( 'unclassified' ) ;
#37 = SECURITY_CLASSIFICATION ( '', '', #36 ) ;
#38 = APPROVAL ( #201, 'NEURÈENÝ' ) ;
#39 = DIRECTION ( 'NONE',  ( 0.000000000000000000, 0.000000000000000000, 1.000000000000000000 ) ) ;
#40 = DIRECTION ( 'NONE',  ( 1.000000000000000000, 0.000000000000000000, 0.000000000000000000 ) ) ;
#41 = LOCAL_TIME ( 19, 5, 51.00000000000000000, #35 ) ;
#42 = CARTESIAN_POINT ( 'NONE',  ( -8.500000000000000000, 0.000000000000000000, 257.0000000000000000 ) ) ;
#43 = FACE_OUTER_BOUND ( 'NONE', #210, .T. ) ;
#44 = DIRECTION ( 'NONE',  ( 0.000000000000000000, 0.000000000000000000, 1.000000000000000000 ) ) ;
#45 = DIRECTION ( 'NONE',  ( 0.000000000000000000, 0.000000000000000000, 1.000000000000000000 ) ) ;
#46 = ADVANCED_FACE ( 'NONE', ( #239 ), #187, .T. ) ;
#47 = AXIS2_PLACEMENT_3D ( 'NONE', #132, #94, #30 ) ;
#48 =( NAMED_UNIT ( * ) SI_UNIT ( $, .STERADIAN. ) SOLID_ANGLE_UNIT ( ) );
#49 = PERSON_AND_ORGANIZATION ( #205, #20 ) ;
#50 = APPLICATION_CONTEXT ( 'configuration controlled 3d designs of mechanical parts and assemblies' ) ;
#51 = PERSON_AND_ORGANIZATION ( #205, #20 ) ;
#52 =( GEOMETRIC_REPRESENTATION_CONTEXT ( 3 ) GLOBAL_UNCERTAINTY_ASSIGNED_CONTEXT ( ( #17 ) ) GLOBAL_UNIT_ASSIGNED_CONTEXT ( ( #197, #95, #48 ) ) REPRESENTATION_CONTEXT ( 'NONE', 'WORKASPACE' ) );
#53 = APPROVAL_ROLE ( '' ) ;
#54 = SHAPE_DEFINITION_REPRESENTATION ( #1, #18 ) ;
#55 = EDGE_CURVE ( 'NONE', #112, #58, #200, .T. ) ;
#56 = CC_DESIGN_PERSON_AND_ORGANIZATION_ASSIGNMENT ( #75, #178, ( #19 ) ) ;
#57 = AXIS2_PLACEMENT_3D ( 'NONE', #163, #222, #167 ) ;
#58 = VERTEX_POINT ( 'NONE', #93 ) ;
#59 = DIRECTION ( 'NONE',  ( -0.000000000000000000, -0.000000000000000000, -1.000000000000000000 ) ) ;
#60 = EDGE_CURVE ( 'NONE', #81, #85, #153, .T. ) ;
#61 = DIRECTION ( 'NONE',  ( 0.000000000000000000, 0.000000000000000000, 1.000000000000000000 ) ) ;
#62 = CIRCLE ( 'NONE', #203, 11.00000000000000000 ) ;
#63 = EDGE_LOOP ( 'NONE', ( #189, #164, #168, #145 ) ) ;
#64 = DIRECTION ( 'NONE',  ( 0.000000000000000000, 0.000000000000000000, 1.000000000000000000 ) ) ;
#65 = EDGE_LOOP ( 'NONE', ( #102, #166 ) ) ;
#66 = VECTOR ( 'NONE', #59, 1000.000000000000000 ) ;
#67 = CARTESIAN_POINT ( 'NONE',  ( 0.000000000000000000, 0.000000000000000000, 257.0000000000000000 ) ) ;
#68 = FACE_OUTER_BOUND ( 'NONE', #3, .T. ) ;
#69 = DIRECTION ( 'NONE',  ( 0.000000000000000000, 0.000000000000000000, 1.000000000000000000 ) ) ;
#70 = CYLINDRICAL_SURFACE ( 'NONE', #47, 11.00000000000000000 ) ;
#71 = CARTESIAN_POINT ( 'NONE',  ( 0.000000000000000000, 0.000000000000000000, 7.000000000000000000 ) ) ;
#72 = AXIS2_PLACEMENT_3D ( 'NONE', #71, #31, #251 ) ;
#73 = CIRCLE ( 'NONE', #232, 8.500000000000000000 ) ;
#74 = CALENDAR_DATE ( 2022, 7, 7 ) ;
#75 = PERSON_AND_ORGANIZATION ( #205, #20 ) ;
#76 = LOCAL_TIME ( 19, 5, 51.00000000000000000, #253 ) ;
#77 = CC_DESIGN_PERSON_AND_ORGANIZATION_ASSIGNMENT ( #51, #198, ( #204 ) ) ;
#78 = APPROVAL_PERSON_ORGANIZATION ( #16, #38, #138 ) ;
#79 = AXIS2_PLACEMENT_3D ( 'NONE', #131, #69, #146 ) ;
#80 = EDGE_CURVE ( 'NONE', #130, #92, #250, .T. ) ;
#81 = VERTEX_POINT ( 'NONE', #42 ) ;
#82 = CARTESIAN_POINT ( 'NONE',  ( 0.000000000000000000, 0.000000000000000000, 257.0000000000000000 ) ) ;
#83 = CC_DESIGN_APPROVAL ( #38, ( #204 ) ) ;
#84 = PRODUCT ( 'c159', 'c159', '', ( #12 ) ) ;
#85 = VERTEX_POINT ( 'NONE', #188 ) ;
#86 = DIRECTION ( 'NONE',  ( 1.000000000000000000, 0.000000000000000000, -0.000000000000000000 ) ) ;
#87 = ORIENTED_EDGE ( 'NONE', *, *, #162, .T. ) ;
#88 = FACE_OUTER_BOUND ( 'NONE', #126, .T. ) ;
#89 = ORIENTED_EDGE ( 'NONE', *, *, #10, .T. ) ;
#90 = CARTESIAN_POINT ( 'NONE',  ( 8.500000000000000000, 1.040949779275250140E-15, 7.000000000000000000 ) ) ;
#91 = FACE_OUTER_BOUND ( 'NONE', #63, .T. ) ;
#92 = VERTEX_POINT ( 'NONE', #22 ) ;
#93 = CARTESIAN_POINT ( 'NONE',  ( -8.500000000000000000, 0.000000000000000000, 7.000000000000000000 ) ) ;
#94 = DIRECTION ( 'NONE',  ( -0.000000000000000000, -0.000000000000000000, -1.000000000000000000 ) ) ;
#95 =( NAMED_UNIT ( * ) PLANE_ANGLE_UNIT ( ) SI_UNIT ( $, .RADIAN. ) );
#96 = PRODUCT_RELATED_PRODUCT_CATEGORY ( 'detail', '', ( #84 ) ) ;
#97 = CARTESIAN_POINT ( 'NONE',  ( 0.000000000000000000, 0.000000000000000000, 7.000000000000000000 ) ) ;
#98 = DATE_AND_TIME ( #74, #76 ) ;
#99 = COORDINATED_UNIVERSAL_TIME_OFFSET ( 1, 0, .AHEAD. ) ;
#100 = EDGE_CURVE ( 'NONE', #58, #112, #128, .T. ) ;
#101 = EDGE_CURVE ( 'NONE', #92, #142, #26, .T. ) ;
#102 = ORIENTED_EDGE ( 'NONE', *, *, #10, .F. ) ;
#103 = ORIENTED_EDGE ( 'NONE', *, *, #162, .F. ) ;
#104 = CYLINDRICAL_SURFACE ( 'NONE', #57, 8.500000000000000000 ) ;
#105 = AXIS2_PLACEMENT_3D ( 'NONE', #230, #45, #191 ) ;
#106 = ORIENTED_EDGE ( 'NONE', *, *, #60, .T. ) ;
#107 = CYLINDRICAL_SURFACE ( 'NONE', #182, 8.500000000000000000 ) ;
#108 = AXIS2_PLACEMENT_3D ( 'NONE', #134, #174, #116 ) ;
#109 = ORIENTED_EDGE ( 'NONE', *, *, #137, .T. ) ;
#110 = DIRECTION ( 'NONE',  ( -0.000000000000000000, -0.000000000000000000, -1.000000000000000000 ) ) ;
#111 = APPLICATION_CONTEXT ( 'configuration controlled 3d designs of mechanical parts and assemblies' ) ;
#112 = VERTEX_POINT ( 'NONE', #90 ) ;
#113 = DIRECTION ( 'NONE',  ( 0.000000000000000000, 0.000000000000000000, 1.000000000000000000 ) ) ;
#114 = APPROVAL_PERSON_ORGANIZATION ( #161, #140, #183 ) ;
#115 = LINE ( 'NONE', #212, #199 ) ;
#116 = DIRECTION ( 'NONE',  ( 1.000000000000000000, 0.000000000000000000, -0.000000000000000000 ) ) ;
#117 = CC_DESIGN_PERSON_AND_ORGANIZATION_ASSIGNMENT ( #181, #235, ( #37 ) ) ;
#118 = APPROVAL_STATUS ( 'not_yet_approved' ) ;
#119 = CALENDAR_DATE ( 2022, 7, 7 ) ;
#120 = CC_DESIGN_PERSON_AND_ORGANIZATION_ASSIGNMENT ( #175, #150, ( #84 ) ) ;
#121 = APPROVAL_DATE_TIME ( #217, #27 ) ;
#122 = CIRCLE ( 'NONE', #155, 11.00000000000000000 ) ;
#123 = AXIS2_PLACEMENT_3D ( 'NONE', #226, #190, #171 ) ;
#124 = ORIENTED_EDGE ( 'NONE', *, *, #60, .F. ) ;
#125 = CARTESIAN_POINT ( 'NONE',  ( 0.000000000000000000, 0.000000000000000000, 7.000000000000000000 ) ) ;
#126 = EDGE_LOOP ( 'NONE', ( #28, #124, #109, #221 ) ) ;
#127 = CARTESIAN_POINT ( 'NONE',  ( 11.00000000000000000, 1.347111479062088405E-15, 7.000000000000000000 ) ) ;
#128 = CIRCLE ( 'NONE', #34, 8.500000000000000000 ) ;
#129 = DIRECTION ( 'NONE',  ( 0.000000000000000000, 0.000000000000000000, 1.000000000000000000 ) ) ;
#130 = VERTEX_POINT ( 'NONE', #143 ) ;
#131 = CARTESIAN_POINT ( 'NONE',  ( 0.000000000000000000, 0.000000000000000000, 7.000000000000000000 ) ) ;
#132 = CARTESIAN_POINT ( 'NONE',  ( 0.000000000000000000, 0.000000000000000000, 7.000000000000000000 ) ) ;
#133 = AXIS2_PLACEMENT_3D ( 'NONE', #242, #113, #24 ) ;
#134 = CARTESIAN_POINT ( 'NONE',  ( 0.000000000000000000, 0.000000000000000000, 0.000000000000000000 ) ) ;
#135 = APPLICATION_PROTOCOL_DEFINITION ( 'international standard', 'config_control_design', 1994, #111 ) ;
#136 = PERSON_AND_ORGANIZATION ( #205, #20 ) ;
#137 = EDGE_CURVE ( 'NONE', #81, #58, #165, .T. ) ;
#138 = APPROVAL_ROLE ( '' ) ;
#139 = COORDINATED_UNIVERSAL_TIME_OFFSET ( 1, 0, .AHEAD. ) ;
#140 = APPROVAL ( #234, 'NEURÈENÝ' ) ;
#141 = CC_DESIGN_DATE_AND_TIME_ASSIGNMENT ( #98, #252, ( #37 ) ) ;
#142 = VERTEX_POINT ( 'NONE', #207 ) ;
#143 = CARTESIAN_POINT ( 'NONE',  ( -11.00000000000000000, 0.000000000000000000, 7.000000000000000000 ) ) ;
#144 = DIRECTION ( 'NONE',  ( -0.000000000000000000, -0.000000000000000000, -1.000000000000000000 ) ) ;
#145 = ORIENTED_EDGE ( 'NONE', *, *, #218, .F. ) ;
#146 = DIRECTION ( 'NONE',  ( 1.000000000000000000, 0.000000000000000000, 0.000000000000000000 ) ) ;
#147 = AXIS2_PLACEMENT_3D ( 'NONE', #125, #11, #149 ) ;
#148 = ORIENTED_EDGE ( 'NONE', *, *, #101, .F. ) ;
#149 = DIRECTION ( 'NONE',  ( 1.000000000000000000, 0.000000000000000000, 0.000000000000000000 ) ) ;
#150 = PERSON_AND_ORGANIZATION_ROLE ( 'design_owner' ) ;
#151 = CYLINDRICAL_SURFACE ( 'NONE', #72, 11.00000000000000000 ) ;
#152 = DIRECTION ( 'NONE',  ( 0.000000000000000000, 0.000000000000000000, 1.000000000000000000 ) ) ;
#153 = CIRCLE ( 'NONE', #123, 8.500000000000000000 ) ;
#154 = APPLICATION_PROTOCOL_DEFINITION ( 'international standard', 'config_control_design', 1994, #50 ) ;
#155 = AXIS2_PLACEMENT_3D ( 'NONE', #224, #39, #40 ) ;
#156 = DATE_AND_TIME ( #202, #41 ) ;
#157 = APPROVAL_DATE_TIME ( #160, #140 ) ;
#158 = APPROVAL_PERSON_ORGANIZATION ( #136, #27, #53 ) ;
#159 = CC_DESIGN_APPROVAL ( #27, ( #19 ) ) ;
#160 = DATE_AND_TIME ( #119, #213 ) ;
#161 = PERSON_AND_ORGANIZATION ( #205, #20 ) ;
#162 = EDGE_CURVE ( 'NONE', #85, #81, #73, .T. ) ;
#163 = CARTESIAN_POINT ( 'NONE',  ( 0.000000000000000000, 0.000000000000000000, 257.0000000000000000 ) ) ;
#164 = ORIENTED_EDGE ( 'NONE', *, *, #101, .T. ) ;
#165 = LINE ( 'NONE', #169, #193 ) ;
#166 = ORIENTED_EDGE ( 'NONE', *, *, #179, .F. ) ;
#167 = DIRECTION ( 'NONE',  ( -1.000000000000000000, 0.000000000000000000, 0.000000000000000000 ) ) ;
#168 = ORIENTED_EDGE ( 'NONE', *, *, #179, .T. ) ;
#169 = CARTESIAN_POINT ( 'NONE',  ( -8.500000000000000000, 0.000000000000000000, 257.0000000000000000 ) ) ;
#170 = FACE_BOUND ( 'NONE', #2, .T. ) ;
#171 = DIRECTION ( 'NONE',  ( 1.000000000000000000, 0.000000000000000000, 0.000000000000000000 ) ) ;
#172 = FACE_OUTER_BOUND ( 'NONE', #7, .T. ) ;
#173 = DESIGN_CONTEXT ( 'detailed design', #50, 'design' ) ;
#174 = DIRECTION ( 'NONE',  ( 0.000000000000000000, 0.000000000000000000, 1.000000000000000000 ) ) ;
#175 = PERSON_AND_ORGANIZATION ( #205, #20 ) ;
#176 = PLANE ( 'NONE',  #108 ) ;
#177 = COORDINATED_UNIVERSAL_TIME_OFFSET ( 1, 0, .AHEAD. ) ;
#178 = PERSON_AND_ORGANIZATION_ROLE ( 'creator' ) ;
#179 = EDGE_CURVE ( 'NONE', #142, #240, #122, .T. ) ;
#180 = CIRCLE ( 'NONE', #133, 11.00000000000000000 ) ;
#181 = PERSON_AND_ORGANIZATION ( #205, #20 ) ;
#182 = AXIS2_PLACEMENT_3D ( 'NONE', #82, #241, #29 ) ;
#183 = APPROVAL_ROLE ( '' ) ;
#184 = ORIENTED_EDGE ( 'NONE', *, *, #80, .F. ) ;
#185 = ORIENTED_EDGE ( 'NONE', *, *, #80, .T. ) ;
#186 = ADVANCED_FACE ( 'NONE', ( #228 ), #176, .F. ) ;
#187 = PLANE ( 'NONE',  #237 ) ;
#188 = CARTESIAN_POINT ( 'NONE',  ( 8.500000000000000000, 1.040949779275250140E-15, 257.0000000000000000 ) ) ;
#189 = ORIENTED_EDGE ( 'NONE', *, *, #194, .F. ) ;
#190 = DIRECTION ( 'NONE',  ( 0.000000000000000000, 0.000000000000000000, 1.000000000000000000 ) ) ;
#191 = DIRECTION ( 'NONE',  ( 1.000000000000000000, 0.000000000000000000, 0.000000000000000000 ) ) ;
#192 = LOCAL_TIME ( 19, 5, 51.00000000000000000, #99 ) ;
#193 = VECTOR ( 'NONE', #144, 1000.000000000000000 ) ;
#194 = EDGE_CURVE ( 'NONE', #92, #130, #62, .T. ) ;
#195 = DIRECTION ( 'NONE',  ( 1.000000000000000000, 0.000000000000000000, 0.000000000000000000 ) ) ;
#196 = CC_DESIGN_DATE_AND_TIME_ASSIGNMENT ( #156, #32, ( #19 ) ) ;
#197 =( LENGTH_UNIT ( ) NAMED_UNIT ( * ) SI_UNIT ( .MILLI., .METRE. ) );
#198 = PERSON_AND_ORGANIZATION_ROLE ( 'creator' ) ;
#199 = VECTOR ( 'NONE', #9, 1000.000000000000000 ) ;
#200 = CIRCLE ( 'NONE', #79, 8.500000000000000000 ) ;
#201 = APPROVAL_STATUS ( 'not_yet_approved' ) ;
#202 = CALENDAR_DATE ( 2022, 7, 7 ) ;
#203 = AXIS2_PLACEMENT_3D ( 'NONE', #247, #152, #195 ) ;
#204 = PRODUCT_DEFINITION_FORMATION_WITH_SPECIFIED_SOURCE ( 'LIBOVOLNÝ', '', #84, .NOT_KNOWN. ) ;
#205 = PERSON ( 'NEURÈENÝ', 'NEURÈENÝ', 'NEURÈENÝ', ('NEURÈENÝ'), ('NEURÈENÝ'), ('NEURÈENÝ') ) ;
#206 = MANIFOLD_SOLID_BREP ( 'Pøidat vysunutím3', #229 ) ;
#207 = CARTESIAN_POINT ( 'NONE',  ( 11.00000000000000000, 1.347111479062088405E-15, 0.000000000000000000 ) ) ;
#208 = ORIENTED_EDGE ( 'NONE', *, *, #194, .T. ) ;
#209 = DIRECTION ( 'NONE',  ( 1.000000000000000000, 0.000000000000000000, 0.000000000000000000 ) ) ;
#210 = EDGE_LOOP ( 'NONE', ( #103, #227, #23, #225 ) ) ;
#211 = DIRECTION ( 'NONE',  ( 1.000000000000000000, 0.000000000000000000, 0.000000000000000000 ) ) ;
#212 = CARTESIAN_POINT ( 'NONE',  ( -11.00000000000000000, 0.000000000000000000, 7.000000000000000000 ) ) ;
#213 = LOCAL_TIME ( 19, 5, 51.00000000000000000, #139 ) ;
#214 = PERSON_AND_ORGANIZATION_ROLE ( 'design_supplier' ) ;
#215 = VECTOR ( 'NONE', #110, 1000.000000000000000 ) ;
#216 = ADVANCED_FACE ( 'NONE', ( #170, #68 ), #248, .T. ) ;
#217 = DATE_AND_TIME ( #15, #231 ) ;
#218 = EDGE_CURVE ( 'NONE', #130, #240, #115, .T. ) ;
#219 = CC_DESIGN_APPROVAL ( #140, ( #37 ) ) ;
#220 = ADVANCED_FACE ( 'NONE', ( #91 ), #151, .T. ) ;
#221 = ORIENTED_EDGE ( 'NONE', *, *, #100, .T. ) ;
#222 = DIRECTION ( 'NONE',  ( -0.000000000000000000, -0.000000000000000000, -1.000000000000000000 ) ) ;
#223 = EDGE_LOOP ( 'NONE', ( #106, #87 ) ) ;
#224 = CARTESIAN_POINT ( 'NONE',  ( 0.000000000000000000, 0.000000000000000000, 0.000000000000000000 ) ) ;
#225 = ORIENTED_EDGE ( 'NONE', *, *, #137, .F. ) ;
#226 = CARTESIAN_POINT ( 'NONE',  ( 0.000000000000000000, 0.000000000000000000, 257.0000000000000000 ) ) ;
#227 = ORIENTED_EDGE ( 'NONE', *, *, #14, .T. ) ;
#228 = FACE_OUTER_BOUND ( 'NONE', #65, .T. ) ;
#229 = CLOSED_SHELL ( 'NONE', ( #25, #220, #254, #216, #186, #21, #46 ) ) ;
#230 = CARTESIAN_POINT ( 'NONE',  ( 0.000000000000000000, 0.000000000000000000, 0.000000000000000000 ) ) ;
#231 = LOCAL_TIME ( 19, 5, 51.00000000000000000, #177 ) ;
#232 = AXIS2_PLACEMENT_3D ( 'NONE', #67, #61, #211 ) ;
#233 = APPROVAL_DATE_TIME ( #255, #38 ) ;
#234 = APPROVAL_STATUS ( 'not_yet_approved' ) ;
#235 = PERSON_AND_ORGANIZATION_ROLE ( 'classification_officer' ) ;
#236 = CALENDAR_DATE ( 2022, 7, 7 ) ;
#237 = AXIS2_PLACEMENT_3D ( 'NONE', #6, #64, #86 ) ;
#238 = ORIENTED_EDGE ( 'NONE', *, *, #218, .T. ) ;
#239 = FACE_OUTER_BOUND ( 'NONE', #223, .T. ) ;
#240 = VERTEX_POINT ( 'NONE', #13 ) ;
#241 = DIRECTION ( 'NONE',  ( -0.000000000000000000, -0.000000000000000000, -1.000000000000000000 ) ) ;
#242 = CARTESIAN_POINT ( 'NONE',  ( 0.000000000000000000, 0.000000000000000000, 0.000000000000000000 ) ) ;
#243 = LINE ( 'NONE', #4, #66 ) ;
#244 = DIRECTION ( 'NONE',  ( 1.000000000000000000, 0.000000000000000000, -0.000000000000000000 ) ) ;
#245 = AXIS2_PLACEMENT_3D ( 'NONE', #97, #44, #244 ) ;
#246 = CARTESIAN_POINT ( 'NONE',  ( 0.000000000000000000, 0.000000000000000000, 7.000000000000000000 ) ) ;
#247 = CARTESIAN_POINT ( 'NONE',  ( 0.000000000000000000, 0.000000000000000000, 7.000000000000000000 ) ) ;
#248 = PLANE ( 'NONE',  #245 ) ;
#249 = CC_DESIGN_SECURITY_CLASSIFICATION ( #37, ( #204 ) ) ;
#250 = CIRCLE ( 'NONE', #147, 11.00000000000000000 ) ;
#251 = DIRECTION ( 'NONE',  ( -1.000000000000000000, 0.000000000000000000, 0.000000000000000000 ) ) ;
#252 = DATE_TIME_ROLE ( 'classification_date' ) ;
#253 = COORDINATED_UNIVERSAL_TIME_OFFSET ( 1, 0, .AHEAD. ) ;
#254 = ADVANCED_FACE ( 'NONE', ( #172 ), #70, .T. ) ;
#255 = DATE_AND_TIME ( #236, #192 ) ;
ENDSEC;
END-ISO-10303-21;
