ISO-10303-21;
HEADER;
FILE_DESCRIPTION (( 'STEP AP203' ),
    '1' );
FILE_NAME ('2871.STEP',
    '2023-02-13T08:44:18',
    ( '' ),
    ( '' ),
    'SwSTEP 2.0',
    'SolidWorks 2019',
    '' );
FILE_SCHEMA (( 'CONFIG_CONTROL_DESIGN' ));
ENDSEC;

DATA;
#1 = CARTESIAN_POINT ( 'NONE',  ( 0.000000000000000000, 0.000000000000000000, 8.000000000000000000 ) ) ;
#2 = VECTOR ( 'NONE', #192, 1000.000000000000000 ) ;
#3 = PRODUCT_DEFINITION ( 'NEZNÁMÝ', '', #58, #27 ) ;
#4 = DATE_TIME_ROLE ( 'creation_date' ) ;
#5 = AXIS2_PLACEMENT_3D ( 'NONE', #75, #174, #168 ) ;
#6 = DIRECTION ( 'NONE',  ( 0.000000000000000000, 0.000000000000000000, 1.000000000000000000 ) ) ;
#7 = EDGE_LOOP ( 'NONE', ( #138, #169 ) ) ;
#8 = CC_DESIGN_PERSON_AND_ORGANIZATION_ASSIGNMENT ( #147, #230, ( #58 ) ) ;
#9 = ORIENTED_EDGE ( 'NONE', *, *, #172, .F. ) ;
#10 = LOCAL_TIME ( 9, 44, 18.00000000000000000, #114 ) ;
#11 = FACE_OUTER_BOUND ( 'NONE', #93, .T. ) ;
#12 = CALENDAR_DATE ( 2023, 13, 2 ) ;
#13 = SHAPE_DEFINITION_REPRESENTATION ( #180, #60 ) ;
#14 = FACE_BOUND ( 'NONE', #225, .T. ) ;
#15 = APPROVAL_ROLE ( '' ) ;
#16 = COORDINATED_UNIVERSAL_TIME_OFFSET ( 1, 0, .AHEAD. ) ;
#17 = ADVANCED_FACE ( 'NONE', ( #181 ), #159, .T. ) ;
#18 = PERSON_AND_ORGANIZATION_ROLE ( 'design_owner' ) ;
#19 = ORIENTED_EDGE ( 'NONE', *, *, #86, .T. ) ;
#20 = EDGE_CURVE ( 'NONE', #105, #196, #252, .T. ) ;
#21 = APPLICATION_PROTOCOL_DEFINITION ( 'international standard', 'config_control_design', 1994, #126 ) ;
#22 = AXIS2_PLACEMENT_3D ( 'NONE', #1, #197, #98 ) ;
#23 = DIRECTION ( 'NONE',  ( 0.000000000000000000, 0.000000000000000000, 1.000000000000000000 ) ) ;
#24 = CC_DESIGN_PERSON_AND_ORGANIZATION_ASSIGNMENT ( #57, #38, ( #3 ) ) ;
#25 = DATE_AND_TIME ( #231, #160 ) ;
#26 = EDGE_LOOP ( 'NONE', ( #244, #88, #46, #183 ) ) ;
#27 = DESIGN_CONTEXT ( 'detailed design', #137, 'design' ) ;
#28 = DATE_AND_TIME ( #34, #214 ) ;
#29 = PLANE ( 'NONE',  #201 ) ;
#30 = SECURITY_CLASSIFICATION ( '', '', #188 ) ;
#31 = FACE_OUTER_BOUND ( 'NONE', #7, .T. ) ;
#32 = CARTESIAN_POINT ( 'NONE',  ( -13.00000000000000178, 0.000000000000000000, 8.000000000000000000 ) ) ;
#33 = VECTOR ( 'NONE', #200, 1000.000000000000000 ) ;
#34 = CALENDAR_DATE ( 2023, 13, 2 ) ;
#35 = CARTESIAN_POINT ( 'NONE',  ( 10.00000000000000178, 1.224646799147353454E-15, 8.000000000000000000 ) ) ;
#36 =( GEOMETRIC_REPRESENTATION_CONTEXT ( 3 ) GLOBAL_UNCERTAINTY_ASSIGNED_CONTEXT ( ( #243 ) ) GLOBAL_UNIT_ASSIGNED_CONTEXT ( ( #109, #245, #223 ) ) REPRESENTATION_CONTEXT ( 'NONE', 'WORKASPACE' ) );
#37 = APPROVAL_ROLE ( '' ) ;
#38 = PERSON_AND_ORGANIZATION_ROLE ( 'creator' ) ;
#39 = ORIENTED_EDGE ( 'NONE', *, *, #172, .T. ) ;
#40 = EDGE_LOOP ( 'NONE', ( #48, #65 ) ) ;
#41 = AXIS2_PLACEMENT_3D ( 'NONE', #68, #6, #122 ) ;
#42 = DIRECTION ( 'NONE',  ( -1.000000000000000000, 0.000000000000000000, 0.000000000000000000 ) ) ;
#43 = DATE_AND_TIME ( #213, #171 ) ;
#44 = EDGE_CURVE ( 'NONE', #196, #105, #135, .T. ) ;
#45 = ORIENTED_EDGE ( 'NONE', *, *, #250, .T. ) ;
#46 = ORIENTED_EDGE ( 'NONE', *, *, #206, .T. ) ;
#47 = AXIS2_PLACEMENT_3D ( 'NONE', #51, #185, #145 ) ;
#48 = ORIENTED_EDGE ( 'NONE', *, *, #177, .F. ) ;
#49 = DIRECTION ( 'NONE',  ( -0.000000000000000000, -0.000000000000000000, -1.000000000000000000 ) ) ;
#50 = CIRCLE ( 'NONE', #117, 10.00000000000000178 ) ;
#51 = CARTESIAN_POINT ( 'NONE',  ( 0.000000000000000000, 0.000000000000000000, 200.0000000000000000 ) ) ;
#52 = CARTESIAN_POINT ( 'NONE',  ( -10.00000000000000178, 0.000000000000000000, 200.0000000000000000 ) ) ;
#53 = APPROVAL ( #103, 'NEURÈENÝ' ) ;
#54 = LINE ( 'NONE', #131, #158 ) ;
#55 = CIRCLE ( 'NONE', #41, 13.00000000000000178 ) ;
#56 = CARTESIAN_POINT ( 'NONE',  ( 0.000000000000000000, 0.000000000000000000, 0.000000000000000000 ) ) ;
#57 = PERSON_AND_ORGANIZATION ( #149, #102 ) ;
#58 = PRODUCT_DEFINITION_FORMATION_WITH_SPECIFIED_SOURCE ( 'LIBOVOLNÝ', '', #63, .NOT_KNOWN. ) ;
#59 = CC_DESIGN_APPROVAL ( #203, ( #3 ) ) ;
#60 = ADVANCED_BREP_SHAPE_REPRESENTATION ( '2871', ( #72, #5 ), #36 ) ;
#61 = CARTESIAN_POINT ( 'NONE',  ( -10.00000000000000178, 0.000000000000000000, 200.0000000000000000 ) ) ;
#62 = CC_DESIGN_SECURITY_CLASSIFICATION ( #30, ( #58 ) ) ;
#63 = PRODUCT ( '2871', '2871', '', ( #118 ) ) ;
#64 = VERTEX_POINT ( 'NONE', #82 ) ;
#65 = ORIENTED_EDGE ( 'NONE', *, *, #73, .F. ) ;
#66 = CARTESIAN_POINT ( 'NONE',  ( 0.000000000000000000, 0.000000000000000000, 0.000000000000000000 ) ) ;
#67 = CARTESIAN_POINT ( 'NONE',  ( -10.00000000000000178, 0.000000000000000000, 8.000000000000000000 ) ) ;
#68 = CARTESIAN_POINT ( 'NONE',  ( 0.000000000000000000, 0.000000000000000000, 8.000000000000000000 ) ) ;
#69 = DIRECTION ( 'NONE',  ( -1.000000000000000000, 0.000000000000000000, 0.000000000000000000 ) ) ;
#70 = EDGE_CURVE ( 'NONE', #218, #105, #233, .T. ) ;
#71 = APPROVAL_DATE_TIME ( #248, #53 ) ;
#72 = MANIFOLD_SOLID_BREP ( 'Pøidat vysunutím3', #254 ) ;
#73 = EDGE_CURVE ( 'NONE', #107, #124, #108, .T. ) ;
#74 = DIRECTION ( 'NONE',  ( 1.000000000000000000, 0.000000000000000000, 0.000000000000000000 ) ) ;
#75 = CARTESIAN_POINT ( 'NONE',  ( 0.000000000000000000, 0.000000000000000000, 0.000000000000000000 ) ) ;
#76 = CIRCLE ( 'NONE', #47, 10.00000000000000178 ) ;
#77 = ORIENTED_EDGE ( 'NONE', *, *, #20, .T. ) ;
#78 = ADVANCED_FACE ( 'NONE', ( #170 ), #220, .T. ) ;
#79 = PERSON_AND_ORGANIZATION ( #149, #102 ) ;
#80 = EDGE_LOOP ( 'NONE', ( #9, #204, #239, #155 ) ) ;
#81 = DIRECTION ( 'NONE',  ( 1.000000000000000000, 0.000000000000000000, 0.000000000000000000 ) ) ;
#82 = CARTESIAN_POINT ( 'NONE',  ( -13.00000000000000178, 0.000000000000000000, 8.000000000000000000 ) ) ;
#83 = APPROVAL_ROLE ( '' ) ;
#84 = CARTESIAN_POINT ( 'NONE',  ( 0.000000000000000000, 0.000000000000000000, 8.000000000000000000 ) ) ;
#85 = VECTOR ( 'NONE', #163, 1000.000000000000000 ) ;
#86 = EDGE_CURVE ( 'NONE', #64, #189, #55, .T. ) ;
#87 = CARTESIAN_POINT ( 'NONE',  ( 0.000000000000000000, 0.000000000000000000, 0.000000000000000000 ) ) ;
#88 = ORIENTED_EDGE ( 'NONE', *, *, #86, .F. ) ;
#89 = EDGE_LOOP ( 'NONE', ( #99, #151, #106, #77 ) ) ;
#90 = DIRECTION ( 'NONE',  ( -0.000000000000000000, -0.000000000000000000, -1.000000000000000000 ) ) ;
#91 = CARTESIAN_POINT ( 'NONE',  ( 0.000000000000000000, 0.000000000000000000, 200.0000000000000000 ) ) ;
#92 = APPROVAL_PERSON_ORGANIZATION ( #237, #53, #37 ) ;
#93 = EDGE_LOOP ( 'NONE', ( #19, #39 ) ) ;
#94 = PLANE ( 'NONE',  #166 ) ;
#95 = DIRECTION ( 'NONE',  ( 0.000000000000000000, 0.000000000000000000, 1.000000000000000000 ) ) ;
#96 = CARTESIAN_POINT ( 'NONE',  ( 10.00000000000000178, 1.224646799147353454E-15, 200.0000000000000000 ) ) ;
#97 = PERSON_AND_ORGANIZATION_ROLE ( 'design_supplier' ) ;
#98 = DIRECTION ( 'NONE',  ( 1.000000000000000000, 0.000000000000000000, 0.000000000000000000 ) ) ;
#99 = ORIENTED_EDGE ( 'NONE', *, *, #250, .F. ) ;
#100 = COORDINATED_UNIVERSAL_TIME_OFFSET ( 1, 0, .AHEAD. ) ;
#101 = DIRECTION ( 'NONE',  ( -0.000000000000000000, -0.000000000000000000, -1.000000000000000000 ) ) ;
#102 = ORGANIZATION ( 'NEURÈENÝ', 'NEURÈENÝ', '' ) ;
#103 = APPROVAL_STATUS ( 'not_yet_approved' ) ;
#104 = PRODUCT_RELATED_PRODUCT_CATEGORY ( 'detail', '', ( #63 ) ) ;
#105 = VERTEX_POINT ( 'NONE', #67 ) ;
#106 = ORIENTED_EDGE ( 'NONE', *, *, #70, .T. ) ;
#107 = VERTEX_POINT ( 'NONE', #140 ) ;
#108 = CIRCLE ( 'NONE', #173, 13.00000000000000178 ) ;
#109 =( LENGTH_UNIT ( ) NAMED_UNIT ( * ) SI_UNIT ( .MILLI., .METRE. ) );
#110 = FACE_OUTER_BOUND ( 'NONE', #115, .T. ) ;
#111 = CC_DESIGN_APPROVAL ( #156, ( #30 ) ) ;
#112 = CARTESIAN_POINT ( 'NONE',  ( 13.00000000000000178, 1.592040838891559293E-15, 8.000000000000000000 ) ) ;
#113 = ADVANCED_FACE ( 'NONE', ( #217 ), #29, .F. ) ;
#114 = COORDINATED_UNIVERSAL_TIME_OFFSET ( 1, 0, .AHEAD. ) ;
#115 = EDGE_LOOP ( 'NONE', ( #215, #45, #202, #157 ) ) ;
#116 = CARTESIAN_POINT ( 'NONE',  ( -13.00000000000000178, 0.000000000000000000, 0.000000000000000000 ) ) ;
#117 = AXIS2_PLACEMENT_3D ( 'NONE', #253, #175, #81 ) ;
#118 = MECHANICAL_CONTEXT ( 'NONE', #126, 'mechanical' ) ;
#119 = CARTESIAN_POINT ( 'NONE',  ( 0.000000000000000000, 0.000000000000000000, 8.000000000000000000 ) ) ;
#120 = AXIS2_PLACEMENT_3D ( 'NONE', #91, #238, #69 ) ;
#121 = DIRECTION ( 'NONE',  ( 0.000000000000000000, 0.000000000000000000, 1.000000000000000000 ) ) ;
#122 = DIRECTION ( 'NONE',  ( 1.000000000000000000, 0.000000000000000000, 0.000000000000000000 ) ) ;
#123 = ADVANCED_FACE ( 'NONE', ( #110 ), #246, .T. ) ;
#124 = VERTEX_POINT ( 'NONE', #116 ) ;
#125 = CC_DESIGN_PERSON_AND_ORGANIZATION_ASSIGNMENT ( #133, #97, ( #58 ) ) ;
#126 = APPLICATION_CONTEXT ( 'configuration controlled 3d designs of mechanical parts and assemblies' ) ;
#127 = CALENDAR_DATE ( 2023, 13, 2 ) ;
#128 = AXIS2_PLACEMENT_3D ( 'NONE', #66, #216, #74 ) ;
#129 = LINE ( 'NONE', #130, #2 ) ;
#130 = CARTESIAN_POINT ( 'NONE',  ( 13.00000000000000178, 1.592040838891559293E-15, 8.000000000000000000 ) ) ;
#131 = CARTESIAN_POINT ( 'NONE',  ( 10.00000000000000178, 1.224646799147353454E-15, 200.0000000000000000 ) ) ;
#132 = CC_DESIGN_DATE_AND_TIME_ASSIGNMENT ( #193, #162, ( #30 ) ) ;
#133 = PERSON_AND_ORGANIZATION ( #149, #102 ) ;
#134 = DIRECTION ( 'NONE',  ( 0.000000000000000000, 0.000000000000000000, 1.000000000000000000 ) ) ;
#135 = CIRCLE ( 'NONE', #141, 10.00000000000000178 ) ;
#136 = DIRECTION ( 'NONE',  ( -1.000000000000000000, 0.000000000000000000, 0.000000000000000000 ) ) ;
#137 = APPLICATION_CONTEXT ( 'configuration controlled 3d designs of mechanical parts and assemblies' ) ;
#138 = ORIENTED_EDGE ( 'NONE', *, *, #161, .T. ) ;
#139 = AXIS2_PLACEMENT_3D ( 'NONE', #249, #49, #148 ) ;
#140 = CARTESIAN_POINT ( 'NONE',  ( 13.00000000000000178, 1.592040838891559293E-15, 0.000000000000000000 ) ) ;
#141 = AXIS2_PLACEMENT_3D ( 'NONE', #119, #134, #236 ) ;
#142 = AXIS2_PLACEMENT_3D ( 'NONE', #242, #176, #136 ) ;
#143 = CC_DESIGN_PERSON_AND_ORGANIZATION_ASSIGNMENT ( #79, #18, ( #63 ) ) ;
#144 = DIRECTION ( 'NONE',  ( 1.000000000000000000, 0.000000000000000000, -0.000000000000000000 ) ) ;
#145 = DIRECTION ( 'NONE',  ( 1.000000000000000000, 0.000000000000000000, 0.000000000000000000 ) ) ;
#146 = CC_DESIGN_DATE_AND_TIME_ASSIGNMENT ( #25, #4, ( #3 ) ) ;
#147 = PERSON_AND_ORGANIZATION ( #149, #102 ) ;
#148 = DIRECTION ( 'NONE',  ( -1.000000000000000000, 0.000000000000000000, 0.000000000000000000 ) ) ;
#149 = PERSON ( 'NEURÈENÝ', 'NEURÈENÝ', 'NEURÈENÝ', ('NEURÈENÝ'), ('NEURÈENÝ'), ('NEURÈENÝ') ) ;
#150 = FACE_OUTER_BOUND ( 'NONE', #80, .T. ) ;
#151 = ORIENTED_EDGE ( 'NONE', *, *, #161, .F. ) ;
#152 = AXIS2_PLACEMENT_3D ( 'NONE', #84, #121, #235 ) ;
#153 = COORDINATED_UNIVERSAL_TIME_OFFSET ( 1, 0, .AHEAD. ) ;
#154 = CIRCLE ( 'NONE', #128, 13.00000000000000178 ) ;
#155 = ORIENTED_EDGE ( 'NONE', *, *, #206, .F. ) ;
#156 = APPROVAL ( #210, 'NEURÈENÝ' ) ;
#157 = ORIENTED_EDGE ( 'NONE', *, *, #70, .F. ) ;
#158 = VECTOR ( 'NONE', #90, 1000.000000000000000 ) ;
#159 = CYLINDRICAL_SURFACE ( 'NONE', #142, 13.00000000000000178 ) ;
#160 = LOCAL_TIME ( 9, 44, 18.00000000000000000, #100 ) ;
#161 = EDGE_CURVE ( 'NONE', #218, #222, #50, .T. ) ;
#162 = DATE_TIME_ROLE ( 'classification_date' ) ;
#163 = DIRECTION ( 'NONE',  ( -0.000000000000000000, -0.000000000000000000, -1.000000000000000000 ) ) ;
#164 = PERSON_AND_ORGANIZATION ( #149, #102 ) ;
#165 = DIRECTION ( 'NONE',  ( 0.000000000000000000, 0.000000000000000000, 1.000000000000000000 ) ) ;
#166 = AXIS2_PLACEMENT_3D ( 'NONE', #187, #226, #205 ) ;
#167 = APPROVAL_DATE_TIME ( #28, #156 ) ;
#168 = DIRECTION ( 'NONE',  ( 1.000000000000000000, 0.000000000000000000, 0.000000000000000000 ) ) ;
#169 = ORIENTED_EDGE ( 'NONE', *, *, #198, .T. ) ;
#170 = FACE_OUTER_BOUND ( 'NONE', #89, .T. ) ;
#171 = LOCAL_TIME ( 9, 44, 18.00000000000000000, #153 ) ;
#172 = EDGE_CURVE ( 'NONE', #189, #64, #179, .T. ) ;
#173 = AXIS2_PLACEMENT_3D ( 'NONE', #87, #23, #178 ) ;
#174 = DIRECTION ( 'NONE',  ( 0.000000000000000000, 0.000000000000000000, 1.000000000000000000 ) ) ;
#175 = DIRECTION ( 'NONE',  ( 0.000000000000000000, 0.000000000000000000, 1.000000000000000000 ) ) ;
#176 = DIRECTION ( 'NONE',  ( -0.000000000000000000, -0.000000000000000000, -1.000000000000000000 ) ) ;
#177 = EDGE_CURVE ( 'NONE', #124, #107, #154, .T. ) ;
#178 = DIRECTION ( 'NONE',  ( 1.000000000000000000, 0.000000000000000000, 0.000000000000000000 ) ) ;
#179 = CIRCLE ( 'NONE', #152, 13.00000000000000178 ) ;
#180 = PRODUCT_DEFINITION_SHAPE ( 'NONE', 'NONE',  #3 ) ;
#181 = FACE_OUTER_BOUND ( 'NONE', #26, .T. ) ;
#182 = AXIS2_PLACEMENT_3D ( 'NONE', #190, #95, #144 ) ;
#183 = ORIENTED_EDGE ( 'NONE', *, *, #177, .T. ) ;
#184 = ADVANCED_FACE ( 'NONE', ( #31 ), #208, .T. ) ;
#185 = DIRECTION ( 'NONE',  ( 0.000000000000000000, 0.000000000000000000, 1.000000000000000000 ) ) ;
#186 = APPROVAL_PERSON_ORGANIZATION ( #209, #156, #15 ) ;
#187 = CARTESIAN_POINT ( 'NONE',  ( 0.000000000000000000, 0.000000000000000000, 8.000000000000000000 ) ) ;
#188 = SECURITY_CLASSIFICATION_LEVEL ( 'unclassified' ) ;
#189 = VERTEX_POINT ( 'NONE', #112 ) ;
#190 = CARTESIAN_POINT ( 'NONE',  ( 0.000000000000000000, 0.000000000000000000, 200.0000000000000000 ) ) ;
#191 = DIRECTION ( 'NONE',  ( 1.000000000000000000, 0.000000000000000000, -0.000000000000000000 ) ) ;
#192 = DIRECTION ( 'NONE',  ( -0.000000000000000000, -0.000000000000000000, -1.000000000000000000 ) ) ;
#193 = DATE_AND_TIME ( #127, #10 ) ;
#194 = CYLINDRICAL_SURFACE ( 'NONE', #139, 13.00000000000000178 ) ;
#195 = AXIS2_PLACEMENT_3D ( 'NONE', #224, #101, #42 ) ;
#196 = VERTEX_POINT ( 'NONE', #35 ) ;
#197 = DIRECTION ( 'NONE',  ( 0.000000000000000000, 0.000000000000000000, 1.000000000000000000 ) ) ;
#198 = EDGE_CURVE ( 'NONE', #222, #218, #76, .T. ) ;
#199 = APPROVAL_PERSON_ORGANIZATION ( #255, #203, #83 ) ;
#200 = DIRECTION ( 'NONE',  ( -0.000000000000000000, -0.000000000000000000, -1.000000000000000000 ) ) ;
#201 = AXIS2_PLACEMENT_3D ( 'NONE', #56, #165, #191 ) ;
#202 = ORIENTED_EDGE ( 'NONE', *, *, #44, .T. ) ;
#203 = APPROVAL ( #234, 'NEURÈENÝ' ) ;
#204 = ORIENTED_EDGE ( 'NONE', *, *, #219, .T. ) ;
#205 = DIRECTION ( 'NONE',  ( 1.000000000000000000, 0.000000000000000000, -0.000000000000000000 ) ) ;
#206 = EDGE_CURVE ( 'NONE', #64, #124, #221, .T. ) ;
#207 = PERSON_AND_ORGANIZATION_ROLE ( 'classification_officer' ) ;
#208 = PLANE ( 'NONE',  #182 ) ;
#209 = PERSON_AND_ORGANIZATION ( #149, #102 ) ;
#210 = APPROVAL_STATUS ( 'not_yet_approved' ) ;
#211 = ADVANCED_FACE ( 'NONE', ( #150 ), #194, .T. ) ;
#212 = CC_DESIGN_PERSON_AND_ORGANIZATION_ASSIGNMENT ( #164, #207, ( #30 ) ) ;
#213 = CALENDAR_DATE ( 2023, 13, 2 ) ;
#214 = LOCAL_TIME ( 9, 44, 18.00000000000000000, #247 ) ;
#215 = ORIENTED_EDGE ( 'NONE', *, *, #198, .F. ) ;
#216 = DIRECTION ( 'NONE',  ( 0.000000000000000000, 0.000000000000000000, 1.000000000000000000 ) ) ;
#217 = FACE_OUTER_BOUND ( 'NONE', #40, .T. ) ;
#218 = VERTEX_POINT ( 'NONE', #52 ) ;
#219 = EDGE_CURVE ( 'NONE', #189, #107, #129, .T. ) ;
#220 = CYLINDRICAL_SURFACE ( 'NONE', #120, 10.00000000000000178 ) ;
#221 = LINE ( 'NONE', #32, #85 ) ;
#222 = VERTEX_POINT ( 'NONE', #96 ) ;
#223 =( NAMED_UNIT ( * ) SI_UNIT ( $, .STERADIAN. ) SOLID_ANGLE_UNIT ( ) );
#224 = CARTESIAN_POINT ( 'NONE',  ( 0.000000000000000000, 0.000000000000000000, 200.0000000000000000 ) ) ;
#225 = EDGE_LOOP ( 'NONE', ( #241, #229 ) ) ;
#226 = DIRECTION ( 'NONE',  ( 0.000000000000000000, 0.000000000000000000, 1.000000000000000000 ) ) ;
#227 = APPROVAL_DATE_TIME ( #43, #203 ) ;
#228 = CC_DESIGN_APPROVAL ( #53, ( #58 ) ) ;
#229 = ORIENTED_EDGE ( 'NONE', *, *, #44, .F. ) ;
#230 = PERSON_AND_ORGANIZATION_ROLE ( 'creator' ) ;
#231 = CALENDAR_DATE ( 2023, 13, 2 ) ;
#232 = ADVANCED_FACE ( 'NONE', ( #14, #11 ), #94, .T. ) ;
#233 = LINE ( 'NONE', #61, #33 ) ;
#234 = APPROVAL_STATUS ( 'not_yet_approved' ) ;
#235 = DIRECTION ( 'NONE',  ( 1.000000000000000000, 0.000000000000000000, 0.000000000000000000 ) ) ;
#236 = DIRECTION ( 'NONE',  ( 1.000000000000000000, 0.000000000000000000, 0.000000000000000000 ) ) ;
#237 = PERSON_AND_ORGANIZATION ( #149, #102 ) ;
#238 = DIRECTION ( 'NONE',  ( -0.000000000000000000, -0.000000000000000000, -1.000000000000000000 ) ) ;
#239 = ORIENTED_EDGE ( 'NONE', *, *, #73, .T. ) ;
#240 = LOCAL_TIME ( 9, 44, 18.00000000000000000, #16 ) ;
#241 = ORIENTED_EDGE ( 'NONE', *, *, #20, .F. ) ;
#242 = CARTESIAN_POINT ( 'NONE',  ( 0.000000000000000000, 0.000000000000000000, 8.000000000000000000 ) ) ;
#243 = UNCERTAINTY_MEASURE_WITH_UNIT (LENGTH_MEASURE( 1.000000000000000082E-05 ), #109, 'distance_accuracy_value', 'NONE');
#244 = ORIENTED_EDGE ( 'NONE', *, *, #219, .F. ) ;
#245 =( NAMED_UNIT ( * ) PLANE_ANGLE_UNIT ( ) SI_UNIT ( $, .RADIAN. ) );
#246 = CYLINDRICAL_SURFACE ( 'NONE', #195, 10.00000000000000178 ) ;
#247 = COORDINATED_UNIVERSAL_TIME_OFFSET ( 1, 0, .AHEAD. ) ;
#248 = DATE_AND_TIME ( #12, #240 ) ;
#249 = CARTESIAN_POINT ( 'NONE',  ( 0.000000000000000000, 0.000000000000000000, 8.000000000000000000 ) ) ;
#250 = EDGE_CURVE ( 'NONE', #222, #196, #54, .T. ) ;
#251 = APPLICATION_PROTOCOL_DEFINITION ( 'international standard', 'config_control_design', 1994, #137 ) ;
#252 = CIRCLE ( 'NONE', #22, 10.00000000000000178 ) ;
#253 = CARTESIAN_POINT ( 'NONE',  ( 0.000000000000000000, 0.000000000000000000, 200.0000000000000000 ) ) ;
#254 = CLOSED_SHELL ( 'NONE', ( #123, #211, #17, #232, #113, #78, #184 ) ) ;
#255 = PERSON_AND_ORGANIZATION ( #149, #102 ) ;
ENDSEC;
END-ISO-10303-21;
