ISO-10303-21;
HEADER;
FILE_DESCRIPTION (( 'STEP AP203' ),
    '1' );
FILE_NAME ('b24c.STEP',
    '2022-07-07T17:27:16',
    ( '' ),
    ( '' ),
    'SwSTEP 2.0',
    'SolidWorks 2019',
    '' );
FILE_SCHEMA (( 'CONFIG_CONTROL_DESIGN' ));
ENDSEC;

DATA;
#1 = LOCAL_TIME ( 19, 27, 16.00000000000000000, #154 ) ;
#2 = SECURITY_CLASSIFICATION ( '', '', #32 ) ;
#3 = FACE_OUTER_BOUND ( 'NONE', #241, .T. ) ;
#4 = ORIENTED_EDGE ( 'NONE', *, *, #198, .T. ) ;
#5 = CYLINDRICAL_SURFACE ( 'NONE', #22, 8.000000000000000000 ) ;
#6 = ORIENTED_EDGE ( 'NONE', *, *, #12, .F. ) ;
#7 = ORIENTED_EDGE ( 'NONE', *, *, #143, .F. ) ;
#8 = EDGE_CURVE ( 'NONE', #109, #83, #177, .T. ) ;
#9 = LOCAL_TIME ( 19, 27, 16.00000000000000000, #91 ) ;
#10 = PERSON_AND_ORGANIZATION_ROLE ( 'creator' ) ;
#11 = CIRCLE ( 'NONE', #201, 8.000000000000000000 ) ;
#12 = EDGE_CURVE ( 'NONE', #213, #83, #220, .T. ) ;
#13 = PERSON_AND_ORGANIZATION ( #41, #180 ) ;
#14 = CALENDAR_DATE ( 2022, 7, 7 ) ;
#15 = APPROVAL_STATUS ( 'not_yet_approved' ) ;
#16 =( GEOMETRIC_REPRESENTATION_CONTEXT ( 3 ) GLOBAL_UNCERTAINTY_ASSIGNED_CONTEXT ( ( #53 ) ) GLOBAL_UNIT_ASSIGNED_CONTEXT ( ( #38, #250, #197 ) ) REPRESENTATION_CONTEXT ( 'NONE', 'WORKASPACE' ) );
#17 = CC_DESIGN_PERSON_AND_ORGANIZATION_ASSIGNMENT ( #88, #134, ( #243 ) ) ;
#18 = CARTESIAN_POINT ( 'NONE',  ( 0.000000000000000000, 0.000000000000000000, 0.000000000000000000 ) ) ;
#19 = DIRECTION ( 'NONE',  ( 1.000000000000000000, 0.000000000000000000, -0.000000000000000000 ) ) ;
#20 = CARTESIAN_POINT ( 'NONE',  ( 5.000000000000000000, 6.123233995736766282E-16, 255.0000000000000000 ) ) ;
#21 = CARTESIAN_POINT ( 'NONE',  ( 0.000000000000000000, 0.000000000000000000, 0.000000000000000000 ) ) ;
#22 = AXIS2_PLACEMENT_3D ( 'NONE', #236, #56, #240 ) ;
#23 = VERTEX_POINT ( 'NONE', #183 ) ;
#24 = CARTESIAN_POINT ( 'NONE',  ( -8.000000000000000000, 0.000000000000000000, 5.000000000000000000 ) ) ;
#25 = DIRECTION ( 'NONE',  ( -0.000000000000000000, -0.000000000000000000, -1.000000000000000000 ) ) ;
#26 = CC_DESIGN_PERSON_AND_ORGANIZATION_ASSIGNMENT ( #188, #225, ( #176 ) ) ;
#27 = CARTESIAN_POINT ( 'NONE',  ( 0.000000000000000000, 0.000000000000000000, 5.000000000000000000 ) ) ;
#28 = CC_DESIGN_PERSON_AND_ORGANIZATION_ASSIGNMENT ( #108, #151, ( #2 ) ) ;
#29 = DIRECTION ( 'NONE',  ( -0.000000000000000000, -0.000000000000000000, -1.000000000000000000 ) ) ;
#30 = CIRCLE ( 'NONE', #147, 5.000000000000000000 ) ;
#31 = CC_DESIGN_APPROVAL ( #200, ( #2 ) ) ;
#32 = SECURITY_CLASSIFICATION_LEVEL ( 'unclassified' ) ;
#33 = PERSON_AND_ORGANIZATION ( #41, #180 ) ;
#34 = APPROVAL_DATE_TIME ( #127, #65 ) ;
#35 = DIRECTION ( 'NONE',  ( 0.000000000000000000, 0.000000000000000000, 1.000000000000000000 ) ) ;
#36 = FACE_OUTER_BOUND ( 'NONE', #189, .T. ) ;
#37 = EDGE_CURVE ( 'NONE', #213, #170, #11, .T. ) ;
#38 =( LENGTH_UNIT ( ) NAMED_UNIT ( * ) SI_UNIT ( .MILLI., .METRE. ) );
#39 = CARTESIAN_POINT ( 'NONE',  ( 5.000000000000000000, 6.123233995736766282E-16, 255.0000000000000000 ) ) ;
#40 = PLANE ( 'NONE',  #249 ) ;
#41 = PERSON ( 'NEURÈENÝ', 'NEURÈENÝ', 'NEURÈENÝ', ('NEURÈENÝ'), ('NEURÈENÝ'), ('NEURÈENÝ') ) ;
#42 = DIRECTION ( 'NONE',  ( 0.000000000000000000, 0.000000000000000000, 1.000000000000000000 ) ) ;
#43 = LINE ( 'NONE', #126, #209 ) ;
#44 = VERTEX_POINT ( 'NONE', #39 ) ;
#45 = CIRCLE ( 'NONE', #171, 8.000000000000000000 ) ;
#46 = APPROVAL_ROLE ( '' ) ;
#47 = ORIENTED_EDGE ( 'NONE', *, *, #87, .T. ) ;
#48 = CC_DESIGN_PERSON_AND_ORGANIZATION_ASSIGNMENT ( #33, #10, ( #243 ) ) ;
#49 = APPROVAL_STATUS ( 'not_yet_approved' ) ;
#50 = CALENDAR_DATE ( 2022, 7, 7 ) ;
#51 = EDGE_CURVE ( 'NONE', #44, #77, #206, .T. ) ;
#52 = DIRECTION ( 'NONE',  ( -1.000000000000000000, 0.000000000000000000, 0.000000000000000000 ) ) ;
#53 = UNCERTAINTY_MEASURE_WITH_UNIT (LENGTH_MEASURE( 1.000000000000000082E-05 ), #38, 'distance_accuracy_value', 'NONE');
#54 = AXIS2_PLACEMENT_3D ( 'NONE', #205, #222, #185 ) ;
#55 = DIRECTION ( 'NONE',  ( 1.000000000000000000, 0.000000000000000000, -0.000000000000000000 ) ) ;
#56 = DIRECTION ( 'NONE',  ( -0.000000000000000000, -0.000000000000000000, -1.000000000000000000 ) ) ;
#57 = CARTESIAN_POINT ( 'NONE',  ( -8.000000000000000000, 0.000000000000000000, 0.000000000000000000 ) ) ;
#58 = AXIS2_PLACEMENT_3D ( 'NONE', #223, #25, #105 ) ;
#59 = ORIENTED_EDGE ( 'NONE', *, *, #80, .F. ) ;
#60 = DIRECTION ( 'NONE',  ( -0.000000000000000000, -0.000000000000000000, -1.000000000000000000 ) ) ;
#61 = DIRECTION ( 'NONE',  ( 1.000000000000000000, 0.000000000000000000, 0.000000000000000000 ) ) ;
#62 = EDGE_LOOP ( 'NONE', ( #89, #168, #155, #6 ) ) ;
#63 = DATE_AND_TIME ( #131, #9 ) ;
#64 = APPROVAL_ROLE ( '' ) ;
#65 = APPROVAL ( #49, 'NEURÈENÝ' ) ;
#66 = DATE_TIME_ROLE ( 'classification_date' ) ;
#67 = SHAPE_DEFINITION_REPRESENTATION ( #207, #125 ) ;
#68 = ORIENTED_EDGE ( 'NONE', *, *, #37, .F. ) ;
#69 = AXIS2_PLACEMENT_3D ( 'NONE', #181, #78, #55 ) ;
#70 = DIRECTION ( 'NONE',  ( 1.000000000000000000, 0.000000000000000000, 0.000000000000000000 ) ) ;
#71 = DIRECTION ( 'NONE',  ( 1.000000000000000000, 0.000000000000000000, 0.000000000000000000 ) ) ;
#72 = ADVANCED_FACE ( 'NONE', ( #81 ), #239, .T. ) ;
#73 = MECHANICAL_CONTEXT ( 'NONE', #194, 'mechanical' ) ;
#74 = ORIENTED_EDGE ( 'NONE', *, *, #8, .F. ) ;
#75 = DIRECTION ( 'NONE',  ( 1.000000000000000000, 0.000000000000000000, 0.000000000000000000 ) ) ;
#76 = DIRECTION ( 'NONE',  ( 0.000000000000000000, 0.000000000000000000, 1.000000000000000000 ) ) ;
#77 = VERTEX_POINT ( 'NONE', #208 ) ;
#78 = DIRECTION ( 'NONE',  ( 0.000000000000000000, 0.000000000000000000, 1.000000000000000000 ) ) ;
#79 = ORIENTED_EDGE ( 'NONE', *, *, #115, .F. ) ;
#80 = EDGE_CURVE ( 'NONE', #23, #245, #43, .T. ) ;
#81 = FACE_OUTER_BOUND ( 'NONE', #238, .T. ) ;
#82 = EDGE_LOOP ( 'NONE', ( #7, #68, #104, #156 ) ) ;
#83 = VERTEX_POINT ( 'NONE', #57 ) ;
#84 = APPROVAL ( #15, 'NEURÈENÝ' ) ;
#85 = COORDINATED_UNIVERSAL_TIME_OFFSET ( 1, 0, .AHEAD. ) ;
#86 = AXIS2_PLACEMENT_3D ( 'NONE', #18, #94, #19 ) ;
#87 = EDGE_CURVE ( 'NONE', #23, #44, #211, .T. ) ;
#88 = PERSON_AND_ORGANIZATION ( #41, #180 ) ;
#89 = ORIENTED_EDGE ( 'NONE', *, *, #221, .F. ) ;
#90 = PERSON_AND_ORGANIZATION ( #41, #180 ) ;
#91 = COORDINATED_UNIVERSAL_TIME_OFFSET ( 1, 0, .AHEAD. ) ;
#92 = ORIENTED_EDGE ( 'NONE', *, *, #115, .T. ) ;
#93 = AXIS2_PLACEMENT_3D ( 'NONE', #145, #199, #107 ) ;
#94 = DIRECTION ( 'NONE',  ( 0.000000000000000000, 0.000000000000000000, 1.000000000000000000 ) ) ;
#95 = CC_DESIGN_DATE_AND_TIME_ASSIGNMENT ( #191, #133, ( #176 ) ) ;
#96 = CARTESIAN_POINT ( 'NONE',  ( 0.000000000000000000, 0.000000000000000000, 0.000000000000000000 ) ) ;
#97 = DIRECTION ( 'NONE',  ( 1.000000000000000000, 0.000000000000000000, 0.000000000000000000 ) ) ;
#98 = DIRECTION ( 'NONE',  ( -0.000000000000000000, -0.000000000000000000, -1.000000000000000000 ) ) ;
#99 = ORIENTED_EDGE ( 'NONE', *, *, #198, .F. ) ;
#100 = LOCAL_TIME ( 19, 27, 16.00000000000000000, #128 ) ;
#101 = EDGE_CURVE ( 'NONE', #44, #23, #254, .T. ) ;
#102 = EDGE_LOOP ( 'NONE', ( #79, #99 ) ) ;
#103 = CARTESIAN_POINT ( 'NONE',  ( 0.000000000000000000, 0.000000000000000000, 255.0000000000000000 ) ) ;
#104 = ORIENTED_EDGE ( 'NONE', *, *, #12, .T. ) ;
#105 = DIRECTION ( 'NONE',  ( -1.000000000000000000, 0.000000000000000000, 0.000000000000000000 ) ) ;
#106 = VECTOR ( 'NONE', #149, 1000.000000000000000 ) ;
#107 = DIRECTION ( 'NONE',  ( 1.000000000000000000, 0.000000000000000000, 0.000000000000000000 ) ) ;
#108 = PERSON_AND_ORGANIZATION ( #41, #180 ) ;
#109 = VERTEX_POINT ( 'NONE', #178 ) ;
#110 = CC_DESIGN_PERSON_AND_ORGANIZATION_ASSIGNMENT ( #227, #165, ( #246 ) ) ;
#111 = APPROVAL_PERSON_ORGANIZATION ( #90, #200, #242 ) ;
#112 = CALENDAR_DATE ( 2022, 7, 7 ) ;
#113 = AXIS2_PLACEMENT_3D ( 'NONE', #96, #175, #253 ) ;
#114 = CARTESIAN_POINT ( 'NONE',  ( 0.000000000000000000, 0.000000000000000000, 5.000000000000000000 ) ) ;
#115 = EDGE_CURVE ( 'NONE', #245, #77, #229, .T. ) ;
#116 = CARTESIAN_POINT ( 'NONE',  ( 0.000000000000000000, 0.000000000000000000, 255.0000000000000000 ) ) ;
#117 = PRODUCT_RELATED_PRODUCT_CATEGORY ( 'detail', '', ( #246 ) ) ;
#118 = DIRECTION ( 'NONE',  ( -1.000000000000000000, 0.000000000000000000, 0.000000000000000000 ) ) ;
#119 = CARTESIAN_POINT ( 'NONE',  ( -8.000000000000000000, 0.000000000000000000, 5.000000000000000000 ) ) ;
#120 = FACE_BOUND ( 'NONE', #102, .T. ) ;
#121 = DIRECTION ( 'NONE',  ( 0.000000000000000000, 0.000000000000000000, 1.000000000000000000 ) ) ;
#122 = ORIENTED_EDGE ( 'NONE', *, *, #216, .F. ) ;
#123 = DIRECTION ( 'NONE',  ( 0.000000000000000000, 0.000000000000000000, 1.000000000000000000 ) ) ;
#124 = APPROVAL_PERSON_ORGANIZATION ( #13, #84, #64 ) ;
#125 = ADVANCED_BREP_SHAPE_REPRESENTATION ( 'b24c', ( #137, #113 ), #16 ) ;
#126 = CARTESIAN_POINT ( 'NONE',  ( -5.000000000000000000, 0.000000000000000000, 255.0000000000000000 ) ) ;
#127 = DATE_AND_TIME ( #112, #1 ) ;
#128 = COORDINATED_UNIVERSAL_TIME_OFFSET ( 1, 0, .AHEAD. ) ;
#129 = ADVANCED_FACE ( 'NONE', ( #163 ), #5, .T. ) ;
#130 = AXIS2_PLACEMENT_3D ( 'NONE', #103, #42, #97 ) ;
#131 = CALENDAR_DATE ( 2022, 7, 7 ) ;
#132 = LOCAL_TIME ( 19, 27, 16.00000000000000000, #226 ) ;
#133 = DATE_TIME_ROLE ( 'creation_date' ) ;
#134 = PERSON_AND_ORGANIZATION_ROLE ( 'design_supplier' ) ;
#135 = ORIENTED_EDGE ( 'NONE', *, *, #101, .F. ) ;
#136 = CARTESIAN_POINT ( 'NONE',  ( 0.000000000000000000, 0.000000000000000000, 5.000000000000000000 ) ) ;
#137 = MANIFOLD_SOLID_BREP ( 'Pøidat vysunutím3', #232 ) ;
#138 = APPLICATION_PROTOCOL_DEFINITION ( 'international standard', 'config_control_design', 1994, #194 ) ;
#139 = DESIGN_CONTEXT ( 'detailed design', #233, 'design' ) ;
#140 = AXIS2_PLACEMENT_3D ( 'NONE', #116, #252, #118 ) ;
#141 = LOCAL_TIME ( 19, 27, 16.00000000000000000, #85 ) ;
#142 = CYLINDRICAL_SURFACE ( 'NONE', #140, 5.000000000000000000 ) ;
#143 = EDGE_CURVE ( 'NONE', #170, #109, #146, .T. ) ;
#144 = CARTESIAN_POINT ( 'NONE',  ( 8.000000000000000000, 9.797174393178825657E-16, 5.000000000000000000 ) ) ;
#145 = CARTESIAN_POINT ( 'NONE',  ( 0.000000000000000000, 0.000000000000000000, 255.0000000000000000 ) ) ;
#146 = LINE ( 'NONE', #144, #193 ) ;
#147 = AXIS2_PLACEMENT_3D ( 'NONE', #136, #174, #70 ) ;
#148 = ORIENTED_EDGE ( 'NONE', *, *, #51, .T. ) ;
#149 = DIRECTION ( 'NONE',  ( -0.000000000000000000, -0.000000000000000000, -1.000000000000000000 ) ) ;
#150 = CC_DESIGN_APPROVAL ( #65, ( #176 ) ) ;
#151 = PERSON_AND_ORGANIZATION_ROLE ( 'classification_officer' ) ;
#152 = ADVANCED_FACE ( 'NONE', ( #120, #3 ), #202, .T. ) ;
#153 = PERSON_AND_ORGANIZATION ( #41, #180 ) ;
#154 = COORDINATED_UNIVERSAL_TIME_OFFSET ( 1, 0, .AHEAD. ) ;
#155 = ORIENTED_EDGE ( 'NONE', *, *, #8, .T. ) ;
#156 = ORIENTED_EDGE ( 'NONE', *, *, #216, .T. ) ;
#157 = FACE_OUTER_BOUND ( 'NONE', #190, .T. ) ;
#158 = AXIS2_PLACEMENT_3D ( 'NONE', #255, #123, #75 ) ;
#159 = ADVANCED_FACE ( 'NONE', ( #157 ), #142, .T. ) ;
#160 = ORIENTED_EDGE ( 'NONE', *, *, #101, .T. ) ;
#161 = FACE_OUTER_BOUND ( 'NONE', #82, .T. ) ;
#162 = DIRECTION ( 'NONE',  ( 0.000000000000000000, 0.000000000000000000, 1.000000000000000000 ) ) ;
#163 = FACE_OUTER_BOUND ( 'NONE', #62, .T. ) ;
#164 = ORIENTED_EDGE ( 'NONE', *, *, #221, .T. ) ;
#165 = PERSON_AND_ORGANIZATION_ROLE ( 'design_owner' ) ;
#166 = CIRCLE ( 'NONE', #235, 8.000000000000000000 ) ;
#167 = APPLICATION_PROTOCOL_DEFINITION ( 'international standard', 'config_control_design', 1994, #233 ) ;
#168 = ORIENTED_EDGE ( 'NONE', *, *, #143, .T. ) ;
#169 = APPROVAL_STATUS ( 'not_yet_approved' ) ;
#170 = VERTEX_POINT ( 'NONE', #219 ) ;
#171 = AXIS2_PLACEMENT_3D ( 'NONE', #21, #35, #231 ) ;
#172 = ORIENTED_EDGE ( 'NONE', *, *, #51, .F. ) ;
#173 = ADVANCED_FACE ( 'NONE', ( #161 ), #215, .T. ) ;
#174 = DIRECTION ( 'NONE',  ( 0.000000000000000000, 0.000000000000000000, 1.000000000000000000 ) ) ;
#175 = DIRECTION ( 'NONE',  ( 0.000000000000000000, 0.000000000000000000, 1.000000000000000000 ) ) ;
#176 = PRODUCT_DEFINITION ( 'NEZNÁMÝ', '', #243, #139 ) ;
#177 = CIRCLE ( 'NONE', #54, 8.000000000000000000 ) ;
#178 = CARTESIAN_POINT ( 'NONE',  ( 8.000000000000000000, 9.797174393178825657E-16, 0.000000000000000000 ) ) ;
#179 = CARTESIAN_POINT ( 'NONE',  ( 0.000000000000000000, 0.000000000000000000, 5.000000000000000000 ) ) ;
#180 = ORGANIZATION ( 'NEURÈENÝ', 'NEURÈENÝ', '' ) ;
#181 = CARTESIAN_POINT ( 'NONE',  ( 0.000000000000000000, 0.000000000000000000, 5.000000000000000000 ) ) ;
#182 = ORIENTED_EDGE ( 'NONE', *, *, #80, .T. ) ;
#183 = CARTESIAN_POINT ( 'NONE',  ( -5.000000000000000000, 0.000000000000000000, 255.0000000000000000 ) ) ;
#184 = CC_DESIGN_DATE_AND_TIME_ASSIGNMENT ( #212, #66, ( #2 ) ) ;
#185 = DIRECTION ( 'NONE',  ( 1.000000000000000000, 0.000000000000000000, 0.000000000000000000 ) ) ;
#186 = EDGE_LOOP ( 'NONE', ( #47, #160 ) ) ;
#187 = ADVANCED_FACE ( 'NONE', ( #237 ), #40, .T. ) ;
#188 = PERSON_AND_ORGANIZATION ( #41, #180 ) ;
#189 = EDGE_LOOP ( 'NONE', ( #122, #74 ) ) ;
#190 = EDGE_LOOP ( 'NONE', ( #135, #148, #4, #59 ) ) ;
#191 = DATE_AND_TIME ( #248, #100 ) ;
#192 = APPROVAL_DATE_TIME ( #63, #200 ) ;
#193 = VECTOR ( 'NONE', #218, 1000.000000000000000 ) ;
#194 = APPLICATION_CONTEXT ( 'configuration controlled 3d designs of mechanical parts and assemblies' ) ;
#195 = CC_DESIGN_APPROVAL ( #84, ( #243 ) ) ;
#196 = PLANE ( 'NONE',  #86 ) ;
#197 =( NAMED_UNIT ( * ) SI_UNIT ( $, .STERADIAN. ) SOLID_ANGLE_UNIT ( ) );
#198 = EDGE_CURVE ( 'NONE', #77, #245, #30, .T. ) ;
#199 = DIRECTION ( 'NONE',  ( 0.000000000000000000, 0.000000000000000000, 1.000000000000000000 ) ) ;
#200 = APPROVAL ( #169, 'NEURÈENÝ' ) ;
#201 = AXIS2_PLACEMENT_3D ( 'NONE', #27, #162, #61 ) ;
#202 = PLANE ( 'NONE',  #69 ) ;
#203 = AXIS2_PLACEMENT_3D ( 'NONE', #179, #98, #52 ) ;
#204 = ORIENTED_EDGE ( 'NONE', *, *, #37, .T. ) ;
#205 = CARTESIAN_POINT ( 'NONE',  ( 0.000000000000000000, 0.000000000000000000, 0.000000000000000000 ) ) ;
#206 = LINE ( 'NONE', #20, #224 ) ;
#207 = PRODUCT_DEFINITION_SHAPE ( 'NONE', 'NONE',  #176 ) ;
#208 = CARTESIAN_POINT ( 'NONE',  ( 5.000000000000000000, 6.123233995736766282E-16, 5.000000000000000000 ) ) ;
#209 = VECTOR ( 'NONE', #29, 1000.000000000000000 ) ;
#210 = DATE_AND_TIME ( #14, #132 ) ;
#211 = CIRCLE ( 'NONE', #93, 5.000000000000000000 ) ;
#212 = DATE_AND_TIME ( #50, #141 ) ;
#213 = VERTEX_POINT ( 'NONE', #119 ) ;
#214 = DIRECTION ( 'NONE',  ( 1.000000000000000000, 0.000000000000000000, -0.000000000000000000 ) ) ;
#215 = CYLINDRICAL_SURFACE ( 'NONE', #203, 8.000000000000000000 ) ;
#216 = EDGE_CURVE ( 'NONE', #83, #109, #45, .T. ) ;
#217 = CARTESIAN_POINT ( 'NONE',  ( 0.000000000000000000, 0.000000000000000000, 255.0000000000000000 ) ) ;
#218 = DIRECTION ( 'NONE',  ( -0.000000000000000000, -0.000000000000000000, -1.000000000000000000 ) ) ;
#219 = CARTESIAN_POINT ( 'NONE',  ( 8.000000000000000000, 9.797174393178825657E-16, 5.000000000000000000 ) ) ;
#220 = LINE ( 'NONE', #24, #106 ) ;
#221 = EDGE_CURVE ( 'NONE', #170, #213, #166, .T. ) ;
#222 = DIRECTION ( 'NONE',  ( 0.000000000000000000, 0.000000000000000000, 1.000000000000000000 ) ) ;
#223 = CARTESIAN_POINT ( 'NONE',  ( 0.000000000000000000, 0.000000000000000000, 255.0000000000000000 ) ) ;
#224 = VECTOR ( 'NONE', #60, 1000.000000000000000 ) ;
#225 = PERSON_AND_ORGANIZATION_ROLE ( 'creator' ) ;
#226 = COORDINATED_UNIVERSAL_TIME_OFFSET ( 1, 0, .AHEAD. ) ;
#227 = PERSON_AND_ORGANIZATION ( #41, #180 ) ;
#228 = ADVANCED_FACE ( 'NONE', ( #36 ), #196, .F. ) ;
#229 = CIRCLE ( 'NONE', #158, 5.000000000000000000 ) ;
#230 = APPROVAL_PERSON_ORGANIZATION ( #153, #65, #46 ) ;
#231 = DIRECTION ( 'NONE',  ( 1.000000000000000000, 0.000000000000000000, 0.000000000000000000 ) ) ;
#232 = CLOSED_SHELL ( 'NONE', ( #159, #129, #173, #152, #228, #72, #187 ) ) ;
#233 = APPLICATION_CONTEXT ( 'configuration controlled 3d designs of mechanical parts and assemblies' ) ;
#234 = CARTESIAN_POINT ( 'NONE',  ( -5.000000000000000000, 0.000000000000000000, 5.000000000000000000 ) ) ;
#235 = AXIS2_PLACEMENT_3D ( 'NONE', #114, #76, #71 ) ;
#236 = CARTESIAN_POINT ( 'NONE',  ( 0.000000000000000000, 0.000000000000000000, 5.000000000000000000 ) ) ;
#237 = FACE_OUTER_BOUND ( 'NONE', #186, .T. ) ;
#238 = EDGE_LOOP ( 'NONE', ( #172, #247, #182, #92 ) ) ;
#239 = CYLINDRICAL_SURFACE ( 'NONE', #58, 5.000000000000000000 ) ;
#240 = DIRECTION ( 'NONE',  ( -1.000000000000000000, 0.000000000000000000, 0.000000000000000000 ) ) ;
#241 = EDGE_LOOP ( 'NONE', ( #204, #164 ) ) ;
#242 = APPROVAL_ROLE ( '' ) ;
#243 = PRODUCT_DEFINITION_FORMATION_WITH_SPECIFIED_SOURCE ( 'LIBOVOLNÝ', '', #246, .NOT_KNOWN. ) ;
#244 = APPROVAL_DATE_TIME ( #210, #84 ) ;
#245 = VERTEX_POINT ( 'NONE', #234 ) ;
#246 = PRODUCT ( 'b24c', 'b24c', '', ( #73 ) ) ;
#247 = ORIENTED_EDGE ( 'NONE', *, *, #87, .F. ) ;
#248 = CALENDAR_DATE ( 2022, 7, 7 ) ;
#249 = AXIS2_PLACEMENT_3D ( 'NONE', #217, #121, #214 ) ;
#250 =( NAMED_UNIT ( * ) PLANE_ANGLE_UNIT ( ) SI_UNIT ( $, .RADIAN. ) );
#251 = CC_DESIGN_SECURITY_CLASSIFICATION ( #2, ( #243 ) ) ;
#252 = DIRECTION ( 'NONE',  ( -0.000000000000000000, -0.000000000000000000, -1.000000000000000000 ) ) ;
#253 = DIRECTION ( 'NONE',  ( 1.000000000000000000, 0.000000000000000000, 0.000000000000000000 ) ) ;
#254 = CIRCLE ( 'NONE', #130, 5.000000000000000000 ) ;
#255 = CARTESIAN_POINT ( 'NONE',  ( 0.000000000000000000, 0.000000000000000000, 5.000000000000000000 ) ) ;
ENDSEC;
END-ISO-10303-21;
