ISO-10303-21;
HEADER;
FILE_DESCRIPTION (( 'STEP AP203' ),
    '1' );
FILE_NAME ('b94d.STEP',
    '2022-07-07T17:40:15',
    ( '' ),
    ( '' ),
    'SwSTEP 2.0',
    'SolidWorks 2019',
    '' );
FILE_SCHEMA (( 'CONFIG_CONTROL_DESIGN' ));
ENDSEC;

DATA;
#1 = PRODUCT_DEFINITION ( 'NEZNÁMÝ', '', #228, #77 ) ;
#2 = AXIS2_PLACEMENT_3D ( 'NONE', #62, #25, #31 ) ;
#3 = AXIS2_PLACEMENT_3D ( 'NONE', #6, #42, #124 ) ;
#4 =( NAMED_UNIT ( * ) SI_UNIT ( $, .STERADIAN. ) SOLID_ANGLE_UNIT ( ) );
#5 = FACE_OUTER_BOUND ( 'NONE', #248, .T. ) ;
#6 = CARTESIAN_POINT ( 'NONE',  ( 0.000000000000000000, 0.000000000000000000, 5.000000000000000000 ) ) ;
#7 = APPLICATION_PROTOCOL_DEFINITION ( 'international standard', 'config_control_design', 1994, #169 ) ;
#8 = DIRECTION ( 'NONE',  ( -1.000000000000000000, 0.000000000000000000, 0.000000000000000000 ) ) ;
#9 = DATE_AND_TIME ( #64, #220 ) ;
#10 = EDGE_CURVE ( 'NONE', #81, #52, #111, .T. ) ;
#11 = PLANE ( 'NONE',  #115 ) ;
#12 = UNCERTAINTY_MEASURE_WITH_UNIT (LENGTH_MEASURE( 1.000000000000000082E-05 ), #184, 'distance_accuracy_value', 'NONE');
#13 = PERSON_AND_ORGANIZATION ( #56, #214 ) ;
#14 = EDGE_LOOP ( 'NONE', ( #217, #113, #224, #237 ) ) ;
#15 = AXIS2_PLACEMENT_3D ( 'NONE', #231, #28, #60 ) ;
#16 = DIRECTION ( 'NONE',  ( 0.000000000000000000, 0.000000000000000000, 1.000000000000000000 ) ) ;
#17 = CALENDAR_DATE ( 2022, 7, 7 ) ;
#18 = DIRECTION ( 'NONE',  ( 1.000000000000000000, 0.000000000000000000, 0.000000000000000000 ) ) ;
#19 = APPROVAL_PERSON_ORGANIZATION ( #13, #195, #125 ) ;
#20 = ORIENTED_EDGE ( 'NONE', *, *, #26, .F. ) ;
#21 = ORIENTED_EDGE ( 'NONE', *, *, #193, .F. ) ;
#22 = AXIS2_PLACEMENT_3D ( 'NONE', #179, #50, #100 ) ;
#23 = CARTESIAN_POINT ( 'NONE',  ( 0.000000000000000000, 0.000000000000000000, 5.000000000000000000 ) ) ;
#24 = CARTESIAN_POINT ( 'NONE',  ( -6.000000000000000888, 0.000000000000000000, 5.000000000000000000 ) ) ;
#25 = DIRECTION ( 'NONE',  ( 0.000000000000000000, 0.000000000000000000, 1.000000000000000000 ) ) ;
#26 = EDGE_CURVE ( 'NONE', #153, #126, #215, .T. ) ;
#27 = CYLINDRICAL_SURFACE ( 'NONE', #110, 3.000000000000000444 ) ;
#28 = DIRECTION ( 'NONE',  ( -0.000000000000000000, -0.000000000000000000, -1.000000000000000000 ) ) ;
#29 = COORDINATED_UNIVERSAL_TIME_OFFSET ( 1, 0, .AHEAD. ) ;
#30 = DIRECTION ( 'NONE',  ( 1.000000000000000000, 0.000000000000000000, 0.000000000000000000 ) ) ;
#31 = DIRECTION ( 'NONE',  ( 1.000000000000000000, 0.000000000000000000, 0.000000000000000000 ) ) ;
#32 = DIRECTION ( 'NONE',  ( 1.000000000000000000, 0.000000000000000000, 0.000000000000000000 ) ) ;
#33 = CYLINDRICAL_SURFACE ( 'NONE', #245, 3.000000000000000444 ) ;
#34 = ORIENTED_EDGE ( 'NONE', *, *, #173, .F. ) ;
#35 = ORIENTED_EDGE ( 'NONE', *, *, #116, .T. ) ;
#36 = LOCAL_TIME ( 19, 40, 15.00000000000000000, #210 ) ;
#37 = VECTOR ( 'NONE', #108, 1000.000000000000000 ) ;
#38 = ADVANCED_FACE ( 'NONE', ( #144 ), #65, .T. ) ;
#39 = APPROVAL_PERSON_ORGANIZATION ( #194, #93, #150 ) ;
#40 = CARTESIAN_POINT ( 'NONE',  ( 3.000000000000000444, 3.673940397442060361E-16, 505.0000000000000000 ) ) ;
#41 = APPROVAL_DATE_TIME ( #9, #76 ) ;
#42 = DIRECTION ( 'NONE',  ( 0.000000000000000000, 0.000000000000000000, 1.000000000000000000 ) ) ;
#43 = ADVANCED_FACE ( 'NONE', ( #148 ), #11, .T. ) ;
#44 = DIRECTION ( 'NONE',  ( 0.000000000000000000, 0.000000000000000000, 1.000000000000000000 ) ) ;
#45 = CARTESIAN_POINT ( 'NONE',  ( 6.000000000000000888, 7.347880794884120722E-16, 5.000000000000000000 ) ) ;
#46 = EDGE_LOOP ( 'NONE', ( #20, #99 ) ) ;
#47 = FACE_OUTER_BOUND ( 'NONE', #254, .T. ) ;
#48 = DATE_AND_TIME ( #166, #190 ) ;
#49 = CYLINDRICAL_SURFACE ( 'NONE', #156, 6.000000000000000888 ) ;
#50 = DIRECTION ( 'NONE',  ( 0.000000000000000000, 0.000000000000000000, 1.000000000000000000 ) ) ;
#51 = DIRECTION ( 'NONE',  ( 0.000000000000000000, 0.000000000000000000, 1.000000000000000000 ) ) ;
#52 = VERTEX_POINT ( 'NONE', #24 ) ;
#53 = ADVANCED_FACE ( 'NONE', ( #5 ), #49, .T. ) ;
#54 = CIRCLE ( 'NONE', #198, 6.000000000000000888 ) ;
#55 = ORIENTED_EDGE ( 'NONE', *, *, #173, .T. ) ;
#56 = PERSON ( 'NEURÈENÝ', 'NEURÈENÝ', 'NEURÈENÝ', ('NEURÈENÝ'), ('NEURÈENÝ'), ('NEURÈENÝ') ) ;
#57 = PRODUCT_RELATED_PRODUCT_CATEGORY ( 'detail', '', ( #70 ) ) ;
#58 = VECTOR ( 'NONE', #181, 1000.000000000000000 ) ;
#59 = FACE_OUTER_BOUND ( 'NONE', #73, .T. ) ;
#60 = DIRECTION ( 'NONE',  ( -1.000000000000000000, 0.000000000000000000, 0.000000000000000000 ) ) ;
#61 = AXIS2_PLACEMENT_3D ( 'NONE', #141, #44, #223 ) ;
#62 = CARTESIAN_POINT ( 'NONE',  ( 0.000000000000000000, 0.000000000000000000, 0.000000000000000000 ) ) ;
#63 = CARTESIAN_POINT ( 'NONE',  ( 0.000000000000000000, 0.000000000000000000, 0.000000000000000000 ) ) ;
#64 = CALENDAR_DATE ( 2022, 7, 7 ) ;
#65 = CYLINDRICAL_SURFACE ( 'NONE', #15, 6.000000000000000888 ) ;
#66 = APPLICATION_PROTOCOL_DEFINITION ( 'international standard', 'config_control_design', 1994, #178 ) ;
#67 = DIRECTION ( 'NONE',  ( 1.000000000000000000, 0.000000000000000000, 0.000000000000000000 ) ) ;
#68 = PERSON_AND_ORGANIZATION_ROLE ( 'creator' ) ;
#69 = CARTESIAN_POINT ( 'NONE',  ( 0.000000000000000000, 0.000000000000000000, 505.0000000000000000 ) ) ;
#70 = PRODUCT ( 'b94d', 'b94d', '', ( #106 ) ) ;
#71 = ORIENTED_EDGE ( 'NONE', *, *, #138, .F. ) ;
#72 = CC_DESIGN_PERSON_AND_ORGANIZATION_ASSIGNMENT ( #133, #68, ( #1 ) ) ;
#73 = EDGE_LOOP ( 'NONE', ( #71, #213, #244, #34 ) ) ;
#74 = SECURITY_CLASSIFICATION ( '', '', #221 ) ;
#75 = LOCAL_TIME ( 19, 40, 15.00000000000000000, #123 ) ;
#76 = APPROVAL ( #98, 'NEURÈENÝ' ) ;
#77 = DESIGN_CONTEXT ( 'detailed design', #178, 'design' ) ;
#78 = EDGE_CURVE ( 'NONE', #52, #183, #252, .T. ) ;
#79 = PERSON_AND_ORGANIZATION_ROLE ( 'creator' ) ;
#80 = LINE ( 'NONE', #168, #201 ) ;
#81 = VERTEX_POINT ( 'NONE', #45 ) ;
#82 =( NAMED_UNIT ( * ) PLANE_ANGLE_UNIT ( ) SI_UNIT ( $, .RADIAN. ) );
#83 = CARTESIAN_POINT ( 'NONE',  ( 0.000000000000000000, 0.000000000000000000, 0.000000000000000000 ) ) ;
#84 = DIRECTION ( 'NONE',  ( 1.000000000000000000, 0.000000000000000000, -0.000000000000000000 ) ) ;
#85 = CALENDAR_DATE ( 2022, 7, 7 ) ;
#86 = DIRECTION ( 'NONE',  ( -1.000000000000000000, 0.000000000000000000, 0.000000000000000000 ) ) ;
#87 = PERSON_AND_ORGANIZATION ( #56, #214 ) ;
#88 = DATE_AND_TIME ( #17, #36 ) ;
#89 = CARTESIAN_POINT ( 'NONE',  ( -6.000000000000000888, 0.000000000000000000, 0.000000000000000000 ) ) ;
#90 = ADVANCED_FACE ( 'NONE', ( #202 ), #33, .T. ) ;
#91 = EDGE_LOOP ( 'NONE', ( #35, #229 ) ) ;
#92 = ORIENTED_EDGE ( 'NONE', *, *, #117, .F. ) ;
#93 = APPROVAL ( #130, 'NEURÈENÝ' ) ;
#94 = CC_DESIGN_PERSON_AND_ORGANIZATION_ASSIGNMENT ( #247, #243, ( #228 ) ) ;
#95 = PRODUCT_DEFINITION_SHAPE ( 'NONE', 'NONE',  #1 ) ;
#96 = CIRCLE ( 'NONE', #189, 3.000000000000000444 ) ;
#97 = CARTESIAN_POINT ( 'NONE',  ( 6.000000000000000888, 7.347880794884120722E-16, 0.000000000000000000 ) ) ;
#98 = APPROVAL_STATUS ( 'not_yet_approved' ) ;
#99 = ORIENTED_EDGE ( 'NONE', *, *, #105, .F. ) ;
#100 = DIRECTION ( 'NONE',  ( 1.000000000000000000, 0.000000000000000000, -0.000000000000000000 ) ) ;
#101 = CARTESIAN_POINT ( 'NONE',  ( 0.000000000000000000, 0.000000000000000000, 5.000000000000000000 ) ) ;
#102 = ORIENTED_EDGE ( 'NONE', *, *, #170, .F. ) ;
#103 = APPROVAL_STATUS ( 'not_yet_approved' ) ;
#104 = CARTESIAN_POINT ( 'NONE',  ( -3.000000000000000444, 0.000000000000000000, 5.000000000000000000 ) ) ;
#105 = EDGE_CURVE ( 'NONE', #126, #153, #96, .T. ) ;
#106 = MECHANICAL_CONTEXT ( 'NONE', #169, 'mechanical' ) ;
#107 = CC_DESIGN_APPROVAL ( #76, ( #74 ) ) ;
#108 = DIRECTION ( 'NONE',  ( -0.000000000000000000, -0.000000000000000000, -1.000000000000000000 ) ) ;
#109 = DATE_AND_TIME ( #85, #203 ) ;
#110 = AXIS2_PLACEMENT_3D ( 'NONE', #69, #186, #8 ) ;
#111 = CIRCLE ( 'NONE', #3, 6.000000000000000888 ) ;
#112 = CC_DESIGN_SECURITY_CLASSIFICATION ( #74, ( #228 ) ) ;
#113 = ORIENTED_EDGE ( 'NONE', *, *, #193, .T. ) ;
#114 = EDGE_LOOP ( 'NONE', ( #102, #197, #55, #154 ) ) ;
#115 = AXIS2_PLACEMENT_3D ( 'NONE', #222, #120, #84 ) ;
#116 = EDGE_CURVE ( 'NONE', #253, #172, #157, .T. ) ;
#117 = EDGE_CURVE ( 'NONE', #174, #183, #54, .T. ) ;
#118 = DIRECTION ( 'NONE',  ( -1.000000000000000000, 0.000000000000000000, 0.000000000000000000 ) ) ;
#119 = DATE_AND_TIME ( #152, #75 ) ;
#120 = DIRECTION ( 'NONE',  ( 0.000000000000000000, 0.000000000000000000, 1.000000000000000000 ) ) ;
#121 = PERSON_AND_ORGANIZATION ( #56, #214 ) ;
#122 = CARTESIAN_POINT ( 'NONE',  ( 3.000000000000000444, 3.673940397442060361E-16, 5.000000000000000000 ) ) ;
#123 = COORDINATED_UNIVERSAL_TIME_OFFSET ( 1, 0, .AHEAD. ) ;
#124 = DIRECTION ( 'NONE',  ( 1.000000000000000000, 0.000000000000000000, 0.000000000000000000 ) ) ;
#125 = APPROVAL_ROLE ( '' ) ;
#126 = VERTEX_POINT ( 'NONE', #122 ) ;
#127 = CC_DESIGN_PERSON_AND_ORGANIZATION_ASSIGNMENT ( #121, #146, ( #70 ) ) ;
#128 = PLANE ( 'NONE',  #22 ) ;
#129 = SHAPE_DEFINITION_REPRESENTATION ( #95, #185 ) ;
#130 = APPROVAL_STATUS ( 'not_yet_approved' ) ;
#131 = DIRECTION ( 'NONE',  ( 0.000000000000000000, 0.000000000000000000, 1.000000000000000000 ) ) ;
#132 = AXIS2_PLACEMENT_3D ( 'NONE', #63, #16, #191 ) ;
#133 = PERSON_AND_ORGANIZATION ( #56, #214 ) ;
#134 = CARTESIAN_POINT ( 'NONE',  ( 0.000000000000000000, 0.000000000000000000, 5.000000000000000000 ) ) ;
#135 = ORIENTED_EDGE ( 'NONE', *, *, #177, .F. ) ;
#136 = AXIS2_PLACEMENT_3D ( 'NONE', #230, #209, #30 ) ;
#137 = ORIENTED_EDGE ( 'NONE', *, *, #240, .T. ) ;
#138 = EDGE_CURVE ( 'NONE', #172, #253, #219, .T. ) ;
#139 = CC_DESIGN_PERSON_AND_ORGANIZATION_ASSIGNMENT ( #233, #79, ( #228 ) ) ;
#140 = PERSON_AND_ORGANIZATION_ROLE ( 'classification_officer' ) ;
#141 = CARTESIAN_POINT ( 'NONE',  ( 0.000000000000000000, 0.000000000000000000, 0.000000000000000000 ) ) ;
#142 = CARTESIAN_POINT ( 'NONE',  ( 3.000000000000000444, 3.673940397442060361E-16, 505.0000000000000000 ) ) ;
#143 =( GEOMETRIC_REPRESENTATION_CONTEXT ( 3 ) GLOBAL_UNCERTAINTY_ASSIGNED_CONTEXT ( ( #12 ) ) GLOBAL_UNIT_ASSIGNED_CONTEXT ( ( #184, #82, #4 ) ) REPRESENTATION_CONTEXT ( 'NONE', 'WORKASPACE' ) );
#144 = FACE_OUTER_BOUND ( 'NONE', #14, .T. ) ;
#145 = CC_DESIGN_DATE_AND_TIME_ASSIGNMENT ( #48, #249, ( #1 ) ) ;
#146 = PERSON_AND_ORGANIZATION_ROLE ( 'design_owner' ) ;
#147 = FACE_BOUND ( 'NONE', #46, .T. ) ;
#148 = FACE_OUTER_BOUND ( 'NONE', #91, .T. ) ;
#149 = LINE ( 'NONE', #232, #58 ) ;
#150 = APPROVAL_ROLE ( '' ) ;
#151 = DIRECTION ( 'NONE',  ( 1.000000000000000000, 0.000000000000000000, 0.000000000000000000 ) ) ;
#152 = CALENDAR_DATE ( 2022, 7, 7 ) ;
#153 = VERTEX_POINT ( 'NONE', #104 ) ;
#154 = ORIENTED_EDGE ( 'NONE', *, *, #26, .T. ) ;
#155 = AXIS2_PLACEMENT_3D ( 'NONE', #23, #131, #32 ) ;
#156 = AXIS2_PLACEMENT_3D ( 'NONE', #101, #226, #118 ) ;
#157 = CIRCLE ( 'NONE', #136, 3.000000000000000444 ) ;
#158 = CIRCLE ( 'NONE', #2, 6.000000000000000888 ) ;
#159 = CLOSED_SHELL ( 'NONE', ( #200, #38, #53, #236, #180, #90, #43 ) ) ;
#160 = CARTESIAN_POINT ( 'NONE',  ( -3.000000000000000444, 0.000000000000000000, 505.0000000000000000 ) ) ;
#161 = DIRECTION ( 'NONE',  ( 0.000000000000000000, 0.000000000000000000, 1.000000000000000000 ) ) ;
#162 = CARTESIAN_POINT ( 'NONE',  ( 0.000000000000000000, 0.000000000000000000, 5.000000000000000000 ) ) ;
#163 = DIRECTION ( 'NONE',  ( 0.000000000000000000, 0.000000000000000000, 1.000000000000000000 ) ) ;
#164 = APPROVAL_ROLE ( '' ) ;
#165 = DIRECTION ( 'NONE',  ( 1.000000000000000000, 0.000000000000000000, 0.000000000000000000 ) ) ;
#166 = CALENDAR_DATE ( 2022, 7, 7 ) ;
#167 = CARTESIAN_POINT ( 'NONE',  ( 0.000000000000000000, 0.000000000000000000, 505.0000000000000000 ) ) ;
#168 = CARTESIAN_POINT ( 'NONE',  ( 6.000000000000000888, 7.347880794884120722E-16, 5.000000000000000000 ) ) ;
#169 = APPLICATION_CONTEXT ( 'configuration controlled 3d designs of mechanical parts and assemblies' ) ;
#170 = EDGE_CURVE ( 'NONE', #172, #126, #206, .T. ) ;
#171 = ORIENTED_EDGE ( 'NONE', *, *, #240, .F. ) ;
#172 = VERTEX_POINT ( 'NONE', #142 ) ;
#173 = EDGE_CURVE ( 'NONE', #253, #153, #149, .T. ) ;
#174 = VERTEX_POINT ( 'NONE', #97 ) ;
#175 = CC_DESIGN_APPROVAL ( #93, ( #228 ) ) ;
#176 = CC_DESIGN_APPROVAL ( #195, ( #1 ) ) ;
#177 = EDGE_CURVE ( 'NONE', #52, #81, #225, .T. ) ;
#178 = APPLICATION_CONTEXT ( 'configuration controlled 3d designs of mechanical parts and assemblies' ) ;
#179 = CARTESIAN_POINT ( 'NONE',  ( 0.000000000000000000, 0.000000000000000000, 5.000000000000000000 ) ) ;
#180 = ADVANCED_FACE ( 'NONE', ( #246 ), #242, .F. ) ;
#181 = DIRECTION ( 'NONE',  ( -0.000000000000000000, -0.000000000000000000, -1.000000000000000000 ) ) ;
#182 = COORDINATED_UNIVERSAL_TIME_OFFSET ( 1, 0, .AHEAD. ) ;
#183 = VERTEX_POINT ( 'NONE', #89 ) ;
#184 =( LENGTH_UNIT ( ) NAMED_UNIT ( * ) SI_UNIT ( .MILLI., .METRE. ) );
#185 = ADVANCED_BREP_SHAPE_REPRESENTATION ( 'b94d', ( #238, #61 ), #143 ) ;
#186 = DIRECTION ( 'NONE',  ( -0.000000000000000000, -0.000000000000000000, -1.000000000000000000 ) ) ;
#187 = DIRECTION ( 'NONE',  ( 0.000000000000000000, 0.000000000000000000, 1.000000000000000000 ) ) ;
#188 = DIRECTION ( 'NONE',  ( -0.000000000000000000, -0.000000000000000000, -1.000000000000000000 ) ) ;
#189 = AXIS2_PLACEMENT_3D ( 'NONE', #134, #51, #67 ) ;
#190 = LOCAL_TIME ( 19, 40, 15.00000000000000000, #29 ) ;
#191 = DIRECTION ( 'NONE',  ( 1.000000000000000000, 0.000000000000000000, -0.000000000000000000 ) ) ;
#192 = PERSON_AND_ORGANIZATION ( #56, #214 ) ;
#193 = EDGE_CURVE ( 'NONE', #81, #174, #80, .T. ) ;
#194 = PERSON_AND_ORGANIZATION ( #56, #214 ) ;
#195 = APPROVAL ( #103, 'NEURÈENÝ' ) ;
#196 = ORIENTED_EDGE ( 'NONE', *, *, #78, .T. ) ;
#197 = ORIENTED_EDGE ( 'NONE', *, *, #116, .F. ) ;
#198 = AXIS2_PLACEMENT_3D ( 'NONE', #83, #161, #18 ) ;
#199 = CC_DESIGN_PERSON_AND_ORGANIZATION_ASSIGNMENT ( #87, #140, ( #74 ) ) ;
#200 = ADVANCED_FACE ( 'NONE', ( #59 ), #27, .T. ) ;
#201 = VECTOR ( 'NONE', #234, 1000.000000000000000 ) ;
#202 = FACE_OUTER_BOUND ( 'NONE', #114, .T. ) ;
#203 = LOCAL_TIME ( 19, 40, 15.00000000000000000, #208 ) ;
#204 = ORIENTED_EDGE ( 'NONE', *, *, #10, .T. ) ;
#205 = APPROVAL_DATE_TIME ( #109, #195 ) ;
#206 = LINE ( 'NONE', #40, #255 ) ;
#207 = EDGE_LOOP ( 'NONE', ( #171, #92 ) ) ;
#208 = COORDINATED_UNIVERSAL_TIME_OFFSET ( 1, 0, .AHEAD. ) ;
#209 = DIRECTION ( 'NONE',  ( 0.000000000000000000, 0.000000000000000000, 1.000000000000000000 ) ) ;
#210 = COORDINATED_UNIVERSAL_TIME_OFFSET ( 1, 0, .AHEAD. ) ;
#211 = CARTESIAN_POINT ( 'NONE',  ( -6.000000000000000888, 0.000000000000000000, 5.000000000000000000 ) ) ;
#212 = CARTESIAN_POINT ( 'NONE',  ( 0.000000000000000000, 0.000000000000000000, 505.0000000000000000 ) ) ;
#213 = ORIENTED_EDGE ( 'NONE', *, *, #170, .T. ) ;
#214 = ORGANIZATION ( 'NEURÈENÝ', 'NEURÈENÝ', '' ) ;
#215 = CIRCLE ( 'NONE', #235, 3.000000000000000444 ) ;
#216 = APPROVAL_PERSON_ORGANIZATION ( #192, #76, #164 ) ;
#217 = ORIENTED_EDGE ( 'NONE', *, *, #10, .F. ) ;
#218 = CC_DESIGN_DATE_AND_TIME_ASSIGNMENT ( #119, #227, ( #74 ) ) ;
#219 = CIRCLE ( 'NONE', #241, 3.000000000000000444 ) ;
#220 = LOCAL_TIME ( 19, 40, 15.00000000000000000, #182 ) ;
#221 = SECURITY_CLASSIFICATION_LEVEL ( 'unclassified' ) ;
#222 = CARTESIAN_POINT ( 'NONE',  ( 0.000000000000000000, 0.000000000000000000, 505.0000000000000000 ) ) ;
#223 = DIRECTION ( 'NONE',  ( 1.000000000000000000, 0.000000000000000000, 0.000000000000000000 ) ) ;
#224 = ORIENTED_EDGE ( 'NONE', *, *, #117, .T. ) ;
#225 = CIRCLE ( 'NONE', #155, 6.000000000000000888 ) ;
#226 = DIRECTION ( 'NONE',  ( -0.000000000000000000, -0.000000000000000000, -1.000000000000000000 ) ) ;
#227 = DATE_TIME_ROLE ( 'classification_date' ) ;
#228 = PRODUCT_DEFINITION_FORMATION_WITH_SPECIFIED_SOURCE ( 'LIBOVOLNÝ', '', #70, .NOT_KNOWN. ) ;
#229 = ORIENTED_EDGE ( 'NONE', *, *, #138, .T. ) ;
#230 = CARTESIAN_POINT ( 'NONE',  ( 0.000000000000000000, 0.000000000000000000, 505.0000000000000000 ) ) ;
#231 = CARTESIAN_POINT ( 'NONE',  ( 0.000000000000000000, 0.000000000000000000, 5.000000000000000000 ) ) ;
#232 = CARTESIAN_POINT ( 'NONE',  ( -3.000000000000000444, 0.000000000000000000, 505.0000000000000000 ) ) ;
#233 = PERSON_AND_ORGANIZATION ( #56, #214 ) ;
#234 = DIRECTION ( 'NONE',  ( -0.000000000000000000, -0.000000000000000000, -1.000000000000000000 ) ) ;
#235 = AXIS2_PLACEMENT_3D ( 'NONE', #162, #187, #165 ) ;
#236 = ADVANCED_FACE ( 'NONE', ( #147, #47 ), #128, .T. ) ;
#237 = ORIENTED_EDGE ( 'NONE', *, *, #78, .F. ) ;
#238 = MANIFOLD_SOLID_BREP ( 'Pøidat vysunutím3', #159 ) ;
#239 = ORIENTED_EDGE ( 'NONE', *, *, #177, .T. ) ;
#240 = EDGE_CURVE ( 'NONE', #183, #174, #158, .T. ) ;
#241 = AXIS2_PLACEMENT_3D ( 'NONE', #212, #163, #151 ) ;
#242 = PLANE ( 'NONE',  #132 ) ;
#243 = PERSON_AND_ORGANIZATION_ROLE ( 'design_supplier' ) ;
#244 = ORIENTED_EDGE ( 'NONE', *, *, #105, .T. ) ;
#245 = AXIS2_PLACEMENT_3D ( 'NONE', #167, #250, #86 ) ;
#246 = FACE_OUTER_BOUND ( 'NONE', #207, .T. ) ;
#247 = PERSON_AND_ORGANIZATION ( #56, #214 ) ;
#248 = EDGE_LOOP ( 'NONE', ( #21, #135, #196, #137 ) ) ;
#249 = DATE_TIME_ROLE ( 'creation_date' ) ;
#250 = DIRECTION ( 'NONE',  ( -0.000000000000000000, -0.000000000000000000, -1.000000000000000000 ) ) ;
#251 = APPROVAL_DATE_TIME ( #88, #93 ) ;
#252 = LINE ( 'NONE', #211, #37 ) ;
#253 = VERTEX_POINT ( 'NONE', #160 ) ;
#254 = EDGE_LOOP ( 'NONE', ( #239, #204 ) ) ;
#255 = VECTOR ( 'NONE', #188, 1000.000000000000000 ) ;
ENDSEC;
END-ISO-10303-21;
