ISO-10303-21;
HEADER;
FILE_DESCRIPTION (( 'STEP AP203' ),
    '1' );
FILE_NAME ('d534.STEP',
    '2022-07-07T17:22:23',
    ( '' ),
    ( '' ),
    'SwSTEP 2.0',
    'SolidWorks 2019',
    '' );
FILE_SCHEMA (( 'CONFIG_CONTROL_DESIGN' ));
ENDSEC;

DATA;
#1 = LOCAL_TIME ( 19, 22, 23.00000000000000000, #151 ) ;
#2 = LOCAL_TIME ( 19, 22, 23.00000000000000000, #93 ) ;
#3 = DIRECTION ( 'NONE',  ( 1.000000000000000000, 0.000000000000000000, -0.000000000000000000 ) ) ;
#4 = VECTOR ( 'NONE', #95, 1000.000000000000000 ) ;
#5 = AXIS2_PLACEMENT_3D ( 'NONE', #44, #127, #6 ) ;
#6 = DIRECTION ( 'NONE',  ( 1.000000000000000000, 0.000000000000000000, 0.000000000000000000 ) ) ;
#7 = SHAPE_DEFINITION_REPRESENTATION ( #239, #103 ) ;
#8 = CARTESIAN_POINT ( 'NONE',  ( -8.000000000000000000, 0.000000000000000000, 0.000000000000000000 ) ) ;
#9 = CALENDAR_DATE ( 2022, 7, 7 ) ;
#10 = ORIENTED_EDGE ( 'NONE', *, *, #18, .F. ) ;
#11 = EDGE_CURVE ( 'NONE', #194, #35, #141, .T. ) ;
#12 = DIRECTION ( 'NONE',  ( 1.000000000000000000, 0.000000000000000000, 0.000000000000000000 ) ) ;
#13 = EDGE_LOOP ( 'NONE', ( #94, #74, #91, #115 ) ) ;
#14 = DIRECTION ( 'NONE',  ( -0.000000000000000000, -0.000000000000000000, -1.000000000000000000 ) ) ;
#15 = CARTESIAN_POINT ( 'NONE',  ( -5.500000000000000000, 0.000000000000000000, 320.0000000000000000 ) ) ;
#16 = ADVANCED_FACE ( 'NONE', ( #17 ), #236, .T. ) ;
#17 = FACE_OUTER_BOUND ( 'NONE', #73, .T. ) ;
#18 = EDGE_CURVE ( 'NONE', #90, #194, #202, .T. ) ;
#19 = DIRECTION ( 'NONE',  ( 1.000000000000000000, 0.000000000000000000, -0.000000000000000000 ) ) ;
#20 = DIRECTION ( 'NONE',  ( 0.000000000000000000, 0.000000000000000000, 1.000000000000000000 ) ) ;
#21 = CARTESIAN_POINT ( 'NONE',  ( 0.000000000000000000, 0.000000000000000000, 0.000000000000000000 ) ) ;
#22 = COORDINATED_UNIVERSAL_TIME_OFFSET ( 1, 0, .AHEAD. ) ;
#23 = CC_DESIGN_SECURITY_CLASSIFICATION ( #27, ( #150 ) ) ;
#24 = CIRCLE ( 'NONE', #89, 8.000000000000000000 ) ;
#25 = CIRCLE ( 'NONE', #168, 8.000000000000000000 ) ;
#26 = DATE_TIME_ROLE ( 'creation_date' ) ;
#27 = SECURITY_CLASSIFICATION ( '', '', #200 ) ;
#28 = CALENDAR_DATE ( 2022, 7, 7 ) ;
#29 = EDGE_LOOP ( 'NONE', ( #250, #98, #159, #233 ) ) ;
#30 = FACE_OUTER_BOUND ( 'NONE', #247, .T. ) ;
#31 = PERSON_AND_ORGANIZATION_ROLE ( 'design_owner' ) ;
#32 =( GEOMETRIC_REPRESENTATION_CONTEXT ( 3 ) GLOBAL_UNCERTAINTY_ASSIGNED_CONTEXT ( ( #164 ) ) GLOBAL_UNIT_ASSIGNED_CONTEXT ( ( #49, #107, #229 ) ) REPRESENTATION_CONTEXT ( 'NONE', 'WORKASPACE' ) );
#33 = VERTEX_POINT ( 'NONE', #158 ) ;
#34 = CARTESIAN_POINT ( 'NONE',  ( 0.000000000000000000, 0.000000000000000000, 5.000000000000000000 ) ) ;
#35 = VERTEX_POINT ( 'NONE', #196 ) ;
#36 = VERTEX_POINT ( 'NONE', #178 ) ;
#37 = AXIS2_PLACEMENT_3D ( 'NONE', #252, #122, #199 ) ;
#38 = LINE ( 'NONE', #15, #4 ) ;
#39 = EDGE_CURVE ( 'NONE', #175, #35, #24, .T. ) ;
#40 = APPROVAL_DATE_TIME ( #165, #124 ) ;
#41 = APPROVAL ( #207, 'NEURÈENÝ' ) ;
#42 = CALENDAR_DATE ( 2022, 7, 7 ) ;
#43 = PLANE ( 'NONE',  #228 ) ;
#44 = CARTESIAN_POINT ( 'NONE',  ( 0.000000000000000000, 0.000000000000000000, 5.000000000000000000 ) ) ;
#45 = PERSON_AND_ORGANIZATION ( #126, #112 ) ;
#46 = DIRECTION ( 'NONE',  ( 1.000000000000000000, 0.000000000000000000, 0.000000000000000000 ) ) ;
#47 = CARTESIAN_POINT ( 'NONE',  ( 5.500000000000000000, 6.735557395310442023E-16, 320.0000000000000000 ) ) ;
#48 = CC_DESIGN_DATE_AND_TIME_ASSIGNMENT ( #87, #57, ( #27 ) ) ;
#49 =( LENGTH_UNIT ( ) NAMED_UNIT ( * ) SI_UNIT ( .MILLI., .METRE. ) );
#50 = AXIS2_PLACEMENT_3D ( 'NONE', #216, #14, #251 ) ;
#51 = PERSON_AND_ORGANIZATION ( #126, #112 ) ;
#52 = AXIS2_PLACEMENT_3D ( 'NONE', #171, #210, #12 ) ;
#53 = DIRECTION ( 'NONE',  ( 0.000000000000000000, 0.000000000000000000, 1.000000000000000000 ) ) ;
#54 = CARTESIAN_POINT ( 'NONE',  ( 0.000000000000000000, 0.000000000000000000, 320.0000000000000000 ) ) ;
#55 = PRODUCT ( 'd534', 'd534', '', ( #246 ) ) ;
#56 = DIRECTION ( 'NONE',  ( -0.000000000000000000, -0.000000000000000000, -1.000000000000000000 ) ) ;
#57 = DATE_TIME_ROLE ( 'classification_date' ) ;
#58 = CC_DESIGN_PERSON_AND_ORGANIZATION_ASSIGNMENT ( #69, #31, ( #55 ) ) ;
#59 = DIRECTION ( 'NONE',  ( 0.000000000000000000, 0.000000000000000000, 1.000000000000000000 ) ) ;
#60 = LOCAL_TIME ( 19, 22, 23.00000000000000000, #128 ) ;
#61 = PERSON_AND_ORGANIZATION_ROLE ( 'design_supplier' ) ;
#62 = FACE_BOUND ( 'NONE', #189, .T. ) ;
#63 = PERSON_AND_ORGANIZATION ( #126, #112 ) ;
#64 = PERSON_AND_ORGANIZATION ( #126, #112 ) ;
#65 = DIRECTION ( 'NONE',  ( 0.000000000000000000, 0.000000000000000000, 1.000000000000000000 ) ) ;
#66 = ADVANCED_FACE ( 'NONE', ( #161 ), #78, .T. ) ;
#67 = PERSON_AND_ORGANIZATION_ROLE ( 'creator' ) ;
#68 = VECTOR ( 'NONE', #56, 1000.000000000000000 ) ;
#69 = PERSON_AND_ORGANIZATION ( #126, #112 ) ;
#70 = ORIENTED_EDGE ( 'NONE', *, *, #243, .F. ) ;
#71 = EDGE_CURVE ( 'NONE', #153, #33, #240, .T. ) ;
#72 = PERSON_AND_ORGANIZATION ( #126, #112 ) ;
#73 = EDGE_LOOP ( 'NONE', ( #121, #255, #116, #79 ) ) ;
#74 = ORIENTED_EDGE ( 'NONE', *, *, #217, .T. ) ;
#75 = APPROVAL_PERSON_ORGANIZATION ( #51, #124, #113 ) ;
#76 = DIRECTION ( 'NONE',  ( 0.000000000000000000, 0.000000000000000000, 1.000000000000000000 ) ) ;
#77 = CC_DESIGN_PERSON_AND_ORGANIZATION_ASSIGNMENT ( #64, #149, ( #27 ) ) ;
#78 = CYLINDRICAL_SURFACE ( 'NONE', #215, 5.500000000000000000 ) ;
#79 = ORIENTED_EDGE ( 'NONE', *, *, #132, .T. ) ;
#80 = ADVANCED_FACE ( 'NONE', ( #146 ), #43, .F. ) ;
#81 = CC_DESIGN_PERSON_AND_ORGANIZATION_ASSIGNMENT ( #242, #61, ( #150 ) ) ;
#82 = FACE_OUTER_BOUND ( 'NONE', #29, .T. ) ;
#83 = CLOSED_SHELL ( 'NONE', ( #66, #120, #204, #190, #80, #16, #241 ) ) ;
#84 = LINE ( 'NONE', #166, #143 ) ;
#85 = DIRECTION ( 'NONE',  ( -1.000000000000000000, 0.000000000000000000, 0.000000000000000000 ) ) ;
#86 = DIRECTION ( 'NONE',  ( 0.000000000000000000, 0.000000000000000000, 1.000000000000000000 ) ) ;
#87 = DATE_AND_TIME ( #182, #60 ) ;
#88 = CYLINDRICAL_SURFACE ( 'NONE', #100, 8.000000000000000000 ) ;
#89 = AXIS2_PLACEMENT_3D ( 'NONE', #144, #76, #254 ) ;
#90 = VERTEX_POINT ( 'NONE', #181 ) ;
#91 = ORIENTED_EDGE ( 'NONE', *, *, #243, .T. ) ;
#92 = CIRCLE ( 'NONE', #237, 5.500000000000000000 ) ;
#93 = COORDINATED_UNIVERSAL_TIME_OFFSET ( 1, 0, .AHEAD. ) ;
#94 = ORIENTED_EDGE ( 'NONE', *, *, #71, .F. ) ;
#95 = DIRECTION ( 'NONE',  ( -0.000000000000000000, -0.000000000000000000, -1.000000000000000000 ) ) ;
#96 = EDGE_CURVE ( 'NONE', #33, #212, #38, .T. ) ;
#97 = LOCAL_TIME ( 19, 22, 23.00000000000000000, #125 ) ;
#98 = ORIENTED_EDGE ( 'NONE', *, *, #11, .T. ) ;
#99 = DESIGN_CONTEXT ( 'detailed design', #180, 'design' ) ;
#100 = AXIS2_PLACEMENT_3D ( 'NONE', #245, #104, #183 ) ;
#101 = CARTESIAN_POINT ( 'NONE',  ( 5.500000000000000000, 6.735557395310442023E-16, 320.0000000000000000 ) ) ;
#102 = APPROVAL_DATE_TIME ( #123, #41 ) ;
#103 = ADVANCED_BREP_SHAPE_REPRESENTATION ( 'd534', ( #129, #52 ), #32 ) ;
#104 = DIRECTION ( 'NONE',  ( -0.000000000000000000, -0.000000000000000000, -1.000000000000000000 ) ) ;
#105 = DIRECTION ( 'NONE',  ( 0.000000000000000000, 0.000000000000000000, 1.000000000000000000 ) ) ;
#106 = CC_DESIGN_APPROVAL ( #124, ( #150 ) ) ;
#107 =( NAMED_UNIT ( * ) PLANE_ANGLE_UNIT ( ) SI_UNIT ( $, .RADIAN. ) );
#108 = ORIENTED_EDGE ( 'NONE', *, *, #174, .T. ) ;
#109 = ORIENTED_EDGE ( 'NONE', *, *, #71, .T. ) ;
#110 = DIRECTION ( 'NONE',  ( 0.000000000000000000, 0.000000000000000000, 1.000000000000000000 ) ) ;
#111 = CC_DESIGN_APPROVAL ( #140, ( #186 ) ) ;
#112 = ORGANIZATION ( 'NEURÈENÝ', 'NEURÈENÝ', '' ) ;
#113 = APPROVAL_ROLE ( '' ) ;
#114 = CARTESIAN_POINT ( 'NONE',  ( 8.000000000000000000, 9.797174393178825657E-16, 5.000000000000000000 ) ) ;
#115 = ORIENTED_EDGE ( 'NONE', *, *, #96, .F. ) ;
#116 = ORIENTED_EDGE ( 'NONE', *, *, #96, .T. ) ;
#117 = CIRCLE ( 'NONE', #5, 5.500000000000000000 ) ;
#118 = APPLICATION_CONTEXT ( 'configuration controlled 3d designs of mechanical parts and assemblies' ) ;
#119 = DIRECTION ( 'NONE',  ( 1.000000000000000000, 0.000000000000000000, 0.000000000000000000 ) ) ;
#120 = ADVANCED_FACE ( 'NONE', ( #82 ), #176, .T. ) ;
#121 = ORIENTED_EDGE ( 'NONE', *, *, #217, .F. ) ;
#122 = DIRECTION ( 'NONE',  ( -0.000000000000000000, -0.000000000000000000, -1.000000000000000000 ) ) ;
#123 = DATE_AND_TIME ( #9, #97 ) ;
#124 = APPROVAL ( #138, 'NEURÈENÝ' ) ;
#125 = COORDINATED_UNIVERSAL_TIME_OFFSET ( 1, 0, .AHEAD. ) ;
#126 = PERSON ( 'NEURÈENÝ', 'NEURÈENÝ', 'NEURÈENÝ', ('NEURÈENÝ'), ('NEURÈENÝ'), ('NEURÈENÝ') ) ;
#127 = DIRECTION ( 'NONE',  ( 0.000000000000000000, 0.000000000000000000, 1.000000000000000000 ) ) ;
#128 = COORDINATED_UNIVERSAL_TIME_OFFSET ( 1, 0, .AHEAD. ) ;
#129 = MANIFOLD_SOLID_BREP ( 'Pøidat vysunutím3', #83 ) ;
#130 = CIRCLE ( 'NONE', #231, 5.500000000000000000 ) ;
#131 = CC_DESIGN_PERSON_AND_ORGANIZATION_ASSIGNMENT ( #72, #67, ( #186 ) ) ;
#132 = EDGE_CURVE ( 'NONE', #212, #36, #117, .T. ) ;
#133 = DIRECTION ( 'NONE',  ( 1.000000000000000000, 0.000000000000000000, 0.000000000000000000 ) ) ;
#134 = ORIENTED_EDGE ( 'NONE', *, *, #11, .F. ) ;
#135 = CC_DESIGN_APPROVAL ( #41, ( #27 ) ) ;
#136 = CC_DESIGN_PERSON_AND_ORGANIZATION_ASSIGNMENT ( #45, #224, ( #150 ) ) ;
#137 = PERSON_AND_ORGANIZATION ( #126, #112 ) ;
#138 = APPROVAL_STATUS ( 'not_yet_approved' ) ;
#139 = EDGE_LOOP ( 'NONE', ( #157, #195 ) ) ;
#140 = APPROVAL ( #244, 'NEURÈENÝ' ) ;
#141 = LINE ( 'NONE', #114, #68 ) ;
#142 = AXIS2_PLACEMENT_3D ( 'NONE', #201, #222, #179 ) ;
#143 = VECTOR ( 'NONE', #206, 1000.000000000000000 ) ;
#144 = CARTESIAN_POINT ( 'NONE',  ( 0.000000000000000000, 0.000000000000000000, 0.000000000000000000 ) ) ;
#145 = PLANE ( 'NONE',  #148 ) ;
#146 = FACE_OUTER_BOUND ( 'NONE', #235, .T. ) ;
#147 = FACE_OUTER_BOUND ( 'NONE', #139, .T. ) ;
#148 = AXIS2_PLACEMENT_3D ( 'NONE', #223, #86, #19 ) ;
#149 = PERSON_AND_ORGANIZATION_ROLE ( 'classification_officer' ) ;
#150 = PRODUCT_DEFINITION_FORMATION_WITH_SPECIFIED_SOURCE ( 'LIBOVOLNÝ', '', #55, .NOT_KNOWN. ) ;
#151 = COORDINATED_UNIVERSAL_TIME_OFFSET ( 1, 0, .AHEAD. ) ;
#152 = APPROVAL_ROLE ( '' ) ;
#153 = VERTEX_POINT ( 'NONE', #101 ) ;
#154 = CARTESIAN_POINT ( 'NONE',  ( 0.000000000000000000, 0.000000000000000000, 320.0000000000000000 ) ) ;
#155 = ORIENTED_EDGE ( 'NONE', *, *, #177, .F. ) ;
#156 = CALENDAR_DATE ( 2022, 7, 7 ) ;
#157 = ORIENTED_EDGE ( 'NONE', *, *, #18, .T. ) ;
#158 = CARTESIAN_POINT ( 'NONE',  ( -5.500000000000000000, 0.000000000000000000, 320.0000000000000000 ) ) ;
#159 = ORIENTED_EDGE ( 'NONE', *, *, #177, .T. ) ;
#160 = LOCAL_TIME ( 19, 22, 23.00000000000000000, #22 ) ;
#161 = FACE_OUTER_BOUND ( 'NONE', #13, .T. ) ;
#162 = ORIENTED_EDGE ( 'NONE', *, *, #249, .T. ) ;
#163 = CIRCLE ( 'NONE', #172, 8.000000000000000000 ) ;
#164 = UNCERTAINTY_MEASURE_WITH_UNIT (LENGTH_MEASURE( 1.000000000000000082E-05 ), #49, 'distance_accuracy_value', 'NONE');
#165 = DATE_AND_TIME ( #42, #160 ) ;
#166 = CARTESIAN_POINT ( 'NONE',  ( -8.000000000000000000, 0.000000000000000000, 5.000000000000000000 ) ) ;
#167 = CARTESIAN_POINT ( 'NONE',  ( 8.000000000000000000, 9.797174393178825657E-16, 5.000000000000000000 ) ) ;
#168 = AXIS2_PLACEMENT_3D ( 'NONE', #21, #59, #203 ) ;
#169 = DIRECTION ( 'NONE',  ( 1.000000000000000000, 0.000000000000000000, 0.000000000000000000 ) ) ;
#170 = EDGE_LOOP ( 'NONE', ( #134, #10, #108, #213 ) ) ;
#171 = CARTESIAN_POINT ( 'NONE',  ( 0.000000000000000000, 0.000000000000000000, 0.000000000000000000 ) ) ;
#172 = AXIS2_PLACEMENT_3D ( 'NONE', #226, #65, #46 ) ;
#173 = APPLICATION_PROTOCOL_DEFINITION ( 'international standard', 'config_control_design', 1994, #118 ) ;
#174 = EDGE_CURVE ( 'NONE', #90, #175, #84, .T. ) ;
#175 = VERTEX_POINT ( 'NONE', #8 ) ;
#176 = CYLINDRICAL_SURFACE ( 'NONE', #37, 8.000000000000000000 ) ;
#177 = EDGE_CURVE ( 'NONE', #35, #175, #25, .T. ) ;
#178 = CARTESIAN_POINT ( 'NONE',  ( 5.500000000000000000, 6.735557395310442023E-16, 5.000000000000000000 ) ) ;
#179 = DIRECTION ( 'NONE',  ( 1.000000000000000000, 0.000000000000000000, 0.000000000000000000 ) ) ;
#180 = APPLICATION_CONTEXT ( 'configuration controlled 3d designs of mechanical parts and assemblies' ) ;
#181 = CARTESIAN_POINT ( 'NONE',  ( -8.000000000000000000, 0.000000000000000000, 5.000000000000000000 ) ) ;
#182 = CALENDAR_DATE ( 2022, 7, 7 ) ;
#183 = DIRECTION ( 'NONE',  ( -1.000000000000000000, 0.000000000000000000, 0.000000000000000000 ) ) ;
#184 = PLANE ( 'NONE',  #185 ) ;
#185 = AXIS2_PLACEMENT_3D ( 'NONE', #230, #105, #234 ) ;
#186 = PRODUCT_DEFINITION ( 'NEZNÁMÝ', '', #150, #99 ) ;
#187 = FACE_OUTER_BOUND ( 'NONE', #170, .T. ) ;
#188 = DATE_AND_TIME ( #156, #1 ) ;
#189 = EDGE_LOOP ( 'NONE', ( #198, #70 ) ) ;
#190 = ADVANCED_FACE ( 'NONE', ( #62, #147 ), #145, .T. ) ;
#191 = DIRECTION ( 'NONE',  ( 0.000000000000000000, 0.000000000000000000, 1.000000000000000000 ) ) ;
#192 = ORIENTED_EDGE ( 'NONE', *, *, #39, .F. ) ;
#193 = DIRECTION ( 'NONE',  ( -0.000000000000000000, -0.000000000000000000, -1.000000000000000000 ) ) ;
#194 = VERTEX_POINT ( 'NONE', #167 ) ;
#195 = ORIENTED_EDGE ( 'NONE', *, *, #197, .T. ) ;
#196 = CARTESIAN_POINT ( 'NONE',  ( 8.000000000000000000, 9.797174393178825657E-16, 0.000000000000000000 ) ) ;
#197 = EDGE_CURVE ( 'NONE', #194, #90, #163, .T. ) ;
#198 = ORIENTED_EDGE ( 'NONE', *, *, #132, .F. ) ;
#199 = DIRECTION ( 'NONE',  ( -1.000000000000000000, 0.000000000000000000, 0.000000000000000000 ) ) ;
#200 = SECURITY_CLASSIFICATION_LEVEL ( 'unclassified' ) ;
#201 = CARTESIAN_POINT ( 'NONE',  ( 0.000000000000000000, 0.000000000000000000, 320.0000000000000000 ) ) ;
#202 = CIRCLE ( 'NONE', #219, 8.000000000000000000 ) ;
#203 = DIRECTION ( 'NONE',  ( 1.000000000000000000, 0.000000000000000000, 0.000000000000000000 ) ) ;
#204 = ADVANCED_FACE ( 'NONE', ( #187 ), #88, .T. ) ;
#205 = CARTESIAN_POINT ( 'NONE',  ( 0.000000000000000000, 0.000000000000000000, 0.000000000000000000 ) ) ;
#206 = DIRECTION ( 'NONE',  ( -0.000000000000000000, -0.000000000000000000, -1.000000000000000000 ) ) ;
#207 = APPROVAL_STATUS ( 'not_yet_approved' ) ;
#208 = VECTOR ( 'NONE', #193, 1000.000000000000000 ) ;
#209 = DATE_AND_TIME ( #28, #2 ) ;
#210 = DIRECTION ( 'NONE',  ( 0.000000000000000000, 0.000000000000000000, 1.000000000000000000 ) ) ;
#211 = APPROVAL_PERSON_ORGANIZATION ( #63, #41, #221 ) ;
#212 = VERTEX_POINT ( 'NONE', #225 ) ;
#213 = ORIENTED_EDGE ( 'NONE', *, *, #39, .T. ) ;
#214 = CARTESIAN_POINT ( 'NONE',  ( 0.000000000000000000, 0.000000000000000000, 5.000000000000000000 ) ) ;
#215 = AXIS2_PLACEMENT_3D ( 'NONE', #54, #220, #85 ) ;
#216 = CARTESIAN_POINT ( 'NONE',  ( 0.000000000000000000, 0.000000000000000000, 320.0000000000000000 ) ) ;
#217 = EDGE_CURVE ( 'NONE', #153, #36, #238, .T. ) ;
#218 = PRODUCT_RELATED_PRODUCT_CATEGORY ( 'detail', '', ( #55 ) ) ;
#219 = AXIS2_PLACEMENT_3D ( 'NONE', #34, #53, #119 ) ;
#220 = DIRECTION ( 'NONE',  ( -0.000000000000000000, -0.000000000000000000, -1.000000000000000000 ) ) ;
#221 = APPROVAL_ROLE ( '' ) ;
#222 = DIRECTION ( 'NONE',  ( 0.000000000000000000, 0.000000000000000000, 1.000000000000000000 ) ) ;
#223 = CARTESIAN_POINT ( 'NONE',  ( 0.000000000000000000, 0.000000000000000000, 5.000000000000000000 ) ) ;
#224 = PERSON_AND_ORGANIZATION_ROLE ( 'creator' ) ;
#225 = CARTESIAN_POINT ( 'NONE',  ( -5.500000000000000000, 0.000000000000000000, 5.000000000000000000 ) ) ;
#226 = CARTESIAN_POINT ( 'NONE',  ( 0.000000000000000000, 0.000000000000000000, 5.000000000000000000 ) ) ;
#227 = CC_DESIGN_DATE_AND_TIME_ASSIGNMENT ( #188, #26, ( #186 ) ) ;
#228 = AXIS2_PLACEMENT_3D ( 'NONE', #205, #20, #3 ) ;
#229 =( NAMED_UNIT ( * ) SI_UNIT ( $, .STERADIAN. ) SOLID_ANGLE_UNIT ( ) );
#230 = CARTESIAN_POINT ( 'NONE',  ( 0.000000000000000000, 0.000000000000000000, 320.0000000000000000 ) ) ;
#231 = AXIS2_PLACEMENT_3D ( 'NONE', #154, #191, #133 ) ;
#232 = APPLICATION_PROTOCOL_DEFINITION ( 'international standard', 'config_control_design', 1994, #180 ) ;
#233 = ORIENTED_EDGE ( 'NONE', *, *, #174, .F. ) ;
#234 = DIRECTION ( 'NONE',  ( 1.000000000000000000, 0.000000000000000000, -0.000000000000000000 ) ) ;
#235 = EDGE_LOOP ( 'NONE', ( #192, #155 ) ) ;
#236 = CYLINDRICAL_SURFACE ( 'NONE', #50, 5.500000000000000000 ) ;
#237 = AXIS2_PLACEMENT_3D ( 'NONE', #214, #110, #169 ) ;
#238 = LINE ( 'NONE', #47, #208 ) ;
#239 = PRODUCT_DEFINITION_SHAPE ( 'NONE', 'NONE',  #186 ) ;
#240 = CIRCLE ( 'NONE', #142, 5.500000000000000000 ) ;
#241 = ADVANCED_FACE ( 'NONE', ( #30 ), #184, .T. ) ;
#242 = PERSON_AND_ORGANIZATION ( #126, #112 ) ;
#243 = EDGE_CURVE ( 'NONE', #36, #212, #92, .T. ) ;
#244 = APPROVAL_STATUS ( 'not_yet_approved' ) ;
#245 = CARTESIAN_POINT ( 'NONE',  ( 0.000000000000000000, 0.000000000000000000, 5.000000000000000000 ) ) ;
#246 = MECHANICAL_CONTEXT ( 'NONE', #118, 'mechanical' ) ;
#247 = EDGE_LOOP ( 'NONE', ( #162, #109 ) ) ;
#248 = APPROVAL_DATE_TIME ( #209, #140 ) ;
#249 = EDGE_CURVE ( 'NONE', #33, #153, #130, .T. ) ;
#250 = ORIENTED_EDGE ( 'NONE', *, *, #197, .F. ) ;
#251 = DIRECTION ( 'NONE',  ( -1.000000000000000000, 0.000000000000000000, 0.000000000000000000 ) ) ;
#252 = CARTESIAN_POINT ( 'NONE',  ( 0.000000000000000000, 0.000000000000000000, 5.000000000000000000 ) ) ;
#253 = APPROVAL_PERSON_ORGANIZATION ( #137, #140, #152 ) ;
#254 = DIRECTION ( 'NONE',  ( 1.000000000000000000, 0.000000000000000000, 0.000000000000000000 ) ) ;
#255 = ORIENTED_EDGE ( 'NONE', *, *, #249, .F. ) ;
ENDSEC;
END-ISO-10303-21;
