ISO-10303-21;
HEADER;
FILE_DESCRIPTION (( 'STEP AP203' ),
    '1' );
FILE_NAME ('ffa2.STEP',
    '2022-07-07T17:03:55',
    ( '' ),
    ( '' ),
    'SwSTEP 2.0',
    'SolidWorks 2019',
    '' );
FILE_SCHEMA (( 'CONFIG_CONTROL_DESIGN' ));
ENDSEC;

DATA;
#1 = COORDINATED_UNIVERSAL_TIME_OFFSET ( 1, 0, .AHEAD. ) ;
#2 = CARTESIAN_POINT ( 'NONE',  ( 0.000000000000000000, 0.000000000000000000, 208.0000000000000284 ) ) ;
#3 = FACE_OUTER_BOUND ( 'NONE', #215, .T. ) ;
#4 = PERSON_AND_ORGANIZATION ( #129, #124 ) ;
#5 = VECTOR ( 'NONE', #61, 1000.000000000000000 ) ;
#6 = EDGE_LOOP ( 'NONE', ( #177, #230, #202, #52 ) ) ;
#7 = CARTESIAN_POINT ( 'NONE',  ( -13.00000000000000178, 0.000000000000000000, 0.000000000000000000 ) ) ;
#8 = EDGE_CURVE ( 'NONE', #253, #197, #74, .T. ) ;
#9 = ORIENTED_EDGE ( 'NONE', *, *, #178, .F. ) ;
#10 = CYLINDRICAL_SURFACE ( 'NONE', #159, 13.00000000000000178 ) ;
#11 = PERSON_AND_ORGANIZATION ( #129, #124 ) ;
#12 = ORIENTED_EDGE ( 'NONE', *, *, #56, .T. ) ;
#13 = CARTESIAN_POINT ( 'NONE',  ( 0.000000000000000000, 0.000000000000000000, 208.0000000000000284 ) ) ;
#14 = PRODUCT ( 'ffa2', 'ffa2', '', ( #63 ) ) ;
#15 = VERTEX_POINT ( 'NONE', #94 ) ;
#16 = APPROVAL_PERSON_ORGANIZATION ( #136, #39, #212 ) ;
#17 = ORIENTED_EDGE ( 'NONE', *, *, #8, .T. ) ;
#18 = CIRCLE ( 'NONE', #181, 10.00000000000000178 ) ;
#19 = APPROVAL_PERSON_ORGANIZATION ( #23, #147, #146 ) ;
#20 = CC_DESIGN_PERSON_AND_ORGANIZATION_ASSIGNMENT ( #242, #43, ( #14 ) ) ;
#21 = AXIS2_PLACEMENT_3D ( 'NONE', #13, #44, #244 ) ;
#22 = CC_DESIGN_DATE_AND_TIME_ASSIGNMENT ( #81, #193, ( #219 ) ) ;
#23 = PERSON_AND_ORGANIZATION ( #129, #124 ) ;
#24 =( LENGTH_UNIT ( ) NAMED_UNIT ( * ) SI_UNIT ( .MILLI., .METRE. ) );
#25 = PLANE ( 'NONE',  #131 ) ;
#26 = PERSON_AND_ORGANIZATION_ROLE ( 'creator' ) ;
#27 = DIRECTION ( 'NONE',  ( -0.000000000000000000, -0.000000000000000000, -1.000000000000000000 ) ) ;
#28 = MANIFOLD_SOLID_BREP ( 'Pøidat vysunutím3', #57 ) ;
#29 = AXIS2_PLACEMENT_3D ( 'NONE', #164, #101, #83 ) ;
#30 = LOCAL_TIME ( 19, 3, 55.00000000000000000, #233 ) ;
#31 = FACE_OUTER_BOUND ( 'NONE', #34, .T. ) ;
#32 = DIRECTION ( 'NONE',  ( 0.000000000000000000, 0.000000000000000000, 1.000000000000000000 ) ) ;
#33 = DATE_AND_TIME ( #130, #30 ) ;
#34 = EDGE_LOOP ( 'NONE', ( #234, #49 ) ) ;
#35 = CARTESIAN_POINT ( 'NONE',  ( 0.000000000000000000, 0.000000000000000000, 8.000000000000000000 ) ) ;
#36 = VERTEX_POINT ( 'NONE', #158 ) ;
#37 = EDGE_LOOP ( 'NONE', ( #118, #66, #216, #70 ) ) ;
#38 = AXIS2_PLACEMENT_3D ( 'NONE', #35, #183, #170 ) ;
#39 = APPROVAL ( #192, 'NEURÈENÝ' ) ;
#40 = DATE_AND_TIME ( #221, #201 ) ;
#41 = VECTOR ( 'NONE', #80, 1000.000000000000000 ) ;
#42 = LINE ( 'NONE', #126, #5 ) ;
#43 = PERSON_AND_ORGANIZATION_ROLE ( 'design_owner' ) ;
#44 = DIRECTION ( 'NONE',  ( -0.000000000000000000, -0.000000000000000000, -1.000000000000000000 ) ) ;
#45 = PERSON_AND_ORGANIZATION_ROLE ( 'creator' ) ;
#46 =( NAMED_UNIT ( * ) SI_UNIT ( $, .STERADIAN. ) SOLID_ANGLE_UNIT ( ) );
#47 = DIRECTION ( 'NONE',  ( 0.000000000000000000, 0.000000000000000000, 1.000000000000000000 ) ) ;
#48 = CARTESIAN_POINT ( 'NONE',  ( -10.00000000000000178, 0.000000000000000000, 208.0000000000000284 ) ) ;
#49 = ORIENTED_EDGE ( 'NONE', *, *, #163, .T. ) ;
#50 = DIRECTION ( 'NONE',  ( 0.000000000000000000, 0.000000000000000000, 1.000000000000000000 ) ) ;
#51 = APPROVAL_DATE_TIME ( #89, #39 ) ;
#52 = ORIENTED_EDGE ( 'NONE', *, *, #178, .T. ) ;
#53 = ADVANCED_FACE ( 'NONE', ( #190 ), #84, .T. ) ;
#54 = ORIENTED_EDGE ( 'NONE', *, *, #182, .T. ) ;
#55 = AXIS2_PLACEMENT_3D ( 'NONE', #254, #73, #111 ) ;
#56 = EDGE_CURVE ( 'NONE', #36, #15, #18, .T. ) ;
#57 = CLOSED_SHELL ( 'NONE', ( #75, #231, #62, #58, #220, #53, #113 ) ) ;
#58 = ADVANCED_FACE ( 'NONE', ( #210, #31 ), #198, .T. ) ;
#59 = DATE_AND_TIME ( #103, #135 ) ;
#60 =( NAMED_UNIT ( * ) PLANE_ANGLE_UNIT ( ) SI_UNIT ( $, .RADIAN. ) );
#61 = DIRECTION ( 'NONE',  ( -0.000000000000000000, -0.000000000000000000, -1.000000000000000000 ) ) ;
#62 = ADVANCED_FACE ( 'NONE', ( #152 ), #172, .T. ) ;
#63 = MECHANICAL_CONTEXT ( 'NONE', #203, 'mechanical' ) ;
#64 = CARTESIAN_POINT ( 'NONE',  ( 0.000000000000000000, 0.000000000000000000, 0.000000000000000000 ) ) ;
#65 = LINE ( 'NONE', #98, #255 ) ;
#66 = ORIENTED_EDGE ( 'NONE', *, *, #56, .F. ) ;
#67 = CARTESIAN_POINT ( 'NONE',  ( 0.000000000000000000, 0.000000000000000000, 8.000000000000000000 ) ) ;
#68 = PERSON_AND_ORGANIZATION ( #129, #124 ) ;
#69 = CIRCLE ( 'NONE', #251, 10.00000000000000178 ) ;
#70 = ORIENTED_EDGE ( 'NONE', *, *, #97, .T. ) ;
#71 = DIRECTION ( 'NONE',  ( 1.000000000000000000, 0.000000000000000000, 0.000000000000000000 ) ) ;
#72 = ORIENTED_EDGE ( 'NONE', *, *, #236, .F. ) ;
#73 = DIRECTION ( 'NONE',  ( 0.000000000000000000, 0.000000000000000000, 1.000000000000000000 ) ) ;
#74 = CIRCLE ( 'NONE', #55, 13.00000000000000178 ) ;
#75 = ADVANCED_FACE ( 'NONE', ( #214 ), #187, .T. ) ;
#76 = PRODUCT_DEFINITION_FORMATION_WITH_SPECIFIED_SOURCE ( 'LIBOVOLNÝ', '', #14, .NOT_KNOWN. ) ;
#77 = AXIS2_PLACEMENT_3D ( 'NONE', #223, #195, #156 ) ;
#78 = APPLICATION_CONTEXT ( 'configuration controlled 3d designs of mechanical parts and assemblies' ) ;
#79 = DIRECTION ( 'NONE',  ( -0.000000000000000000, -0.000000000000000000, -1.000000000000000000 ) ) ;
#80 = DIRECTION ( 'NONE',  ( -0.000000000000000000, -0.000000000000000000, -1.000000000000000000 ) ) ;
#81 = DATE_AND_TIME ( #110, #96 ) ;
#82 = FACE_OUTER_BOUND ( 'NONE', #199, .T. ) ;
#83 = DIRECTION ( 'NONE',  ( 1.000000000000000000, 0.000000000000000000, 0.000000000000000000 ) ) ;
#84 = CYLINDRICAL_SURFACE ( 'NONE', #121, 10.00000000000000178 ) ;
#85 = CARTESIAN_POINT ( 'NONE',  ( 0.000000000000000000, 0.000000000000000000, 208.0000000000000284 ) ) ;
#86 = COORDINATED_UNIVERSAL_TIME_OFFSET ( 1, 0, .AHEAD. ) ;
#87 = ORIENTED_EDGE ( 'NONE', *, *, #120, .F. ) ;
#88 = CARTESIAN_POINT ( 'NONE',  ( 0.000000000000000000, 0.000000000000000000, 8.000000000000000000 ) ) ;
#89 = DATE_AND_TIME ( #173, #218 ) ;
#90 = APPROVAL ( #225, 'NEURÈENÝ' ) ;
#91 = VERTEX_POINT ( 'NONE', #227 ) ;
#92 = DIRECTION ( 'NONE',  ( 1.000000000000000000, 0.000000000000000000, 0.000000000000000000 ) ) ;
#93 = ORIENTED_EDGE ( 'NONE', *, *, #186, .T. ) ;
#94 = CARTESIAN_POINT ( 'NONE',  ( 10.00000000000000178, 1.224646799147353454E-15, 208.0000000000000284 ) ) ;
#95 = ADVANCED_BREP_SHAPE_REPRESENTATION ( 'ffa2', ( #28, #240 ), #180 ) ;
#96 = LOCAL_TIME ( 19, 3, 55.00000000000000000, #166 ) ;
#97 = EDGE_CURVE ( 'NONE', #213, #174, #239, .T. ) ;
#98 = CARTESIAN_POINT ( 'NONE',  ( -13.00000000000000178, 0.000000000000000000, 8.000000000000000000 ) ) ;
#99 = UNCERTAINTY_MEASURE_WITH_UNIT (LENGTH_MEASURE( 1.000000000000000082E-05 ), #24, 'distance_accuracy_value', 'NONE');
#100 = CC_DESIGN_SECURITY_CLASSIFICATION ( #168, ( #76 ) ) ;
#101 = DIRECTION ( 'NONE',  ( 0.000000000000000000, 0.000000000000000000, 1.000000000000000000 ) ) ;
#102 = DIRECTION ( 'NONE',  ( 0.000000000000000000, 0.000000000000000000, 1.000000000000000000 ) ) ;
#103 = CALENDAR_DATE ( 2022, 7, 7 ) ;
#104 = FACE_OUTER_BOUND ( 'NONE', #139, .T. ) ;
#105 = APPROVAL_STATUS ( 'not_yet_approved' ) ;
#106 = AXIS2_PLACEMENT_3D ( 'NONE', #88, #224, #138 ) ;
#107 = ORIENTED_EDGE ( 'NONE', *, *, #120, .T. ) ;
#108 = CARTESIAN_POINT ( 'NONE',  ( 13.00000000000000178, 1.592040838891559293E-15, 8.000000000000000000 ) ) ;
#109 = CIRCLE ( 'NONE', #122, 13.00000000000000178 ) ;
#110 = CALENDAR_DATE ( 2022, 7, 7 ) ;
#111 = DIRECTION ( 'NONE',  ( 1.000000000000000000, 0.000000000000000000, 0.000000000000000000 ) ) ;
#112 = CARTESIAN_POINT ( 'NONE',  ( 0.000000000000000000, 0.000000000000000000, 8.000000000000000000 ) ) ;
#113 = ADVANCED_FACE ( 'NONE', ( #3 ), #25, .T. ) ;
#114 = PERSON_AND_ORGANIZATION ( #129, #124 ) ;
#115 = EDGE_LOOP ( 'NONE', ( #87, #54, #155, #137 ) ) ;
#116 = LINE ( 'NONE', #134, #41 ) ;
#117 = ORIENTED_EDGE ( 'NONE', *, *, #163, .F. ) ;
#118 = ORIENTED_EDGE ( 'NONE', *, *, #182, .F. ) ;
#119 = CC_DESIGN_APPROVAL ( #147, ( #76 ) ) ;
#120 = EDGE_CURVE ( 'NONE', #15, #36, #69, .T. ) ;
#121 = AXIS2_PLACEMENT_3D ( 'NONE', #171, #245, #151 ) ;
#122 = AXIS2_PLACEMENT_3D ( 'NONE', #64, #50, #92 ) ;
#123 = APPROVAL_DATE_TIME ( #40, #147 ) ;
#124 = ORGANIZATION ( 'NEURÈENÝ', 'NEURÈENÝ', '' ) ;
#125 = CARTESIAN_POINT ( 'NONE',  ( 13.00000000000000178, 1.592040838891559293E-15, 0.000000000000000000 ) ) ;
#126 = CARTESIAN_POINT ( 'NONE',  ( 13.00000000000000178, 1.592040838891559293E-15, 8.000000000000000000 ) ) ;
#127 = APPROVAL_ROLE ( '' ) ;
#128 = DIRECTION ( 'NONE',  ( 1.000000000000000000, 0.000000000000000000, -0.000000000000000000 ) ) ;
#129 = PERSON ( 'NEURÈENÝ', 'NEURÈENÝ', 'NEURÈENÝ', ('NEURÈENÝ'), ('NEURÈENÝ'), ('NEURÈENÝ') ) ;
#130 = CALENDAR_DATE ( 2022, 7, 7 ) ;
#131 = AXIS2_PLACEMENT_3D ( 'NONE', #85, #102, #128 ) ;
#132 = DIRECTION ( 'NONE',  ( 1.000000000000000000, 0.000000000000000000, 0.000000000000000000 ) ) ;
#133 = CC_DESIGN_PERSON_AND_ORGANIZATION_ASSIGNMENT ( #4, #26, ( #219 ) ) ;
#134 = CARTESIAN_POINT ( 'NONE',  ( 10.00000000000000178, 1.224646799147353454E-15, 208.0000000000000284 ) ) ;
#135 = LOCAL_TIME ( 19, 3, 55.00000000000000000, #1 ) ;
#136 = PERSON_AND_ORGANIZATION ( #129, #124 ) ;
#137 = ORIENTED_EDGE ( 'NONE', *, *, #142, .F. ) ;
#138 = DIRECTION ( 'NONE',  ( 1.000000000000000000, 0.000000000000000000, -0.000000000000000000 ) ) ;
#139 = EDGE_LOOP ( 'NONE', ( #9, #235 ) ) ;
#140 = ORIENTED_EDGE ( 'NONE', *, *, #97, .F. ) ;
#141 = VECTOR ( 'NONE', #27, 1000.000000000000000 ) ;
#142 = EDGE_CURVE ( 'NONE', #36, #213, #175, .T. ) ;
#143 = CIRCLE ( 'NONE', #38, 10.00000000000000178 ) ;
#144 = PRODUCT_RELATED_PRODUCT_CATEGORY ( 'detail', '', ( #14 ) ) ;
#145 = DESIGN_CONTEXT ( 'detailed design', #78, 'design' ) ;
#146 = APPROVAL_ROLE ( '' ) ;
#147 = APPROVAL ( #105, 'NEURÈENÝ' ) ;
#148 = CARTESIAN_POINT ( 'NONE',  ( -10.00000000000000178, 0.000000000000000000, 8.000000000000000000 ) ) ;
#149 = CC_DESIGN_APPROVAL ( #39, ( #168 ) ) ;
#150 = DIRECTION ( 'NONE',  ( -0.000000000000000000, -0.000000000000000000, -1.000000000000000000 ) ) ;
#151 = DIRECTION ( 'NONE',  ( -1.000000000000000000, 0.000000000000000000, 0.000000000000000000 ) ) ;
#152 = FACE_OUTER_BOUND ( 'NONE', #6, .T. ) ;
#153 = DATE_TIME_ROLE ( 'classification_date' ) ;
#154 = AXIS2_PLACEMENT_3D ( 'NONE', #67, #243, #71 ) ;
#155 = ORIENTED_EDGE ( 'NONE', *, *, #236, .T. ) ;
#156 = DIRECTION ( 'NONE',  ( 1.000000000000000000, 0.000000000000000000, -0.000000000000000000 ) ) ;
#157 = VERTEX_POINT ( 'NONE', #108 ) ;
#158 = CARTESIAN_POINT ( 'NONE',  ( -10.00000000000000178, 0.000000000000000000, 208.0000000000000284 ) ) ;
#159 = AXIS2_PLACEMENT_3D ( 'NONE', #167, #150, #250 ) ;
#160 = CC_DESIGN_DATE_AND_TIME_ASSIGNMENT ( #33, #153, ( #168 ) ) ;
#161 = AXIS2_PLACEMENT_3D ( 'NONE', #112, #191, #185 ) ;
#162 = APPLICATION_PROTOCOL_DEFINITION ( 'international standard', 'config_control_design', 1994, #203 ) ;
#163 = EDGE_CURVE ( 'NONE', #157, #91, #176, .T. ) ;
#164 = CARTESIAN_POINT ( 'NONE',  ( 0.000000000000000000, 0.000000000000000000, 8.000000000000000000 ) ) ;
#165 = DIRECTION ( 'NONE',  ( -1.000000000000000000, 0.000000000000000000, 0.000000000000000000 ) ) ;
#166 = COORDINATED_UNIVERSAL_TIME_OFFSET ( 1, 0, .AHEAD. ) ;
#167 = CARTESIAN_POINT ( 'NONE',  ( 0.000000000000000000, 0.000000000000000000, 8.000000000000000000 ) ) ;
#168 = SECURITY_CLASSIFICATION ( '', '', #196 ) ;
#169 = CC_DESIGN_PERSON_AND_ORGANIZATION_ASSIGNMENT ( #11, #45, ( #76 ) ) ;
#170 = DIRECTION ( 'NONE',  ( 1.000000000000000000, 0.000000000000000000, 0.000000000000000000 ) ) ;
#171 = CARTESIAN_POINT ( 'NONE',  ( 0.000000000000000000, 0.000000000000000000, 208.0000000000000284 ) ) ;
#172 = CYLINDRICAL_SURFACE ( 'NONE', #179, 13.00000000000000178 ) ;
#173 = CALENDAR_DATE ( 2022, 7, 7 ) ;
#174 = VERTEX_POINT ( 'NONE', #206 ) ;
#175 = LINE ( 'NONE', #48, #141 ) ;
#176 = CIRCLE ( 'NONE', #161, 13.00000000000000178 ) ;
#177 = ORIENTED_EDGE ( 'NONE', *, *, #186, .F. ) ;
#178 = EDGE_CURVE ( 'NONE', #197, #253, #109, .T. ) ;
#179 = AXIS2_PLACEMENT_3D ( 'NONE', #232, #246, #165 ) ;
#180 =( GEOMETRIC_REPRESENTATION_CONTEXT ( 3 ) GLOBAL_UNCERTAINTY_ASSIGNED_CONTEXT ( ( #99 ) ) GLOBAL_UNIT_ASSIGNED_CONTEXT ( ( #24, #60, #46 ) ) REPRESENTATION_CONTEXT ( 'NONE', 'WORKASPACE' ) );
#181 = AXIS2_PLACEMENT_3D ( 'NONE', #226, #47, #132 ) ;
#182 = EDGE_CURVE ( 'NONE', #15, #174, #116, .T. ) ;
#183 = DIRECTION ( 'NONE',  ( 0.000000000000000000, 0.000000000000000000, 1.000000000000000000 ) ) ;
#184 = DIRECTION ( 'NONE',  ( 1.000000000000000000, 0.000000000000000000, 0.000000000000000000 ) ) ;
#185 = DIRECTION ( 'NONE',  ( 1.000000000000000000, 0.000000000000000000, 0.000000000000000000 ) ) ;
#186 = EDGE_CURVE ( 'NONE', #157, #253, #42, .T. ) ;
#187 = CYLINDRICAL_SURFACE ( 'NONE', #21, 10.00000000000000178 ) ;
#188 = CARTESIAN_POINT ( 'NONE',  ( 0.000000000000000000, 0.000000000000000000, 0.000000000000000000 ) ) ;
#189 = CIRCLE ( 'NONE', #29, 13.00000000000000178 ) ;
#190 = FACE_OUTER_BOUND ( 'NONE', #37, .T. ) ;
#191 = DIRECTION ( 'NONE',  ( 0.000000000000000000, 0.000000000000000000, 1.000000000000000000 ) ) ;
#192 = APPROVAL_STATUS ( 'not_yet_approved' ) ;
#193 = DATE_TIME_ROLE ( 'creation_date' ) ;
#194 = ORIENTED_EDGE ( 'NONE', *, *, #248, .F. ) ;
#195 = DIRECTION ( 'NONE',  ( 0.000000000000000000, 0.000000000000000000, 1.000000000000000000 ) ) ;
#196 = SECURITY_CLASSIFICATION_LEVEL ( 'unclassified' ) ;
#197 = VERTEX_POINT ( 'NONE', #7 ) ;
#198 = PLANE ( 'NONE',  #106 ) ;
#199 = EDGE_LOOP ( 'NONE', ( #117, #93, #17, #194 ) ) ;
#200 = CC_DESIGN_APPROVAL ( #90, ( #219 ) ) ;
#201 = LOCAL_TIME ( 19, 3, 55.00000000000000000, #86 ) ;
#202 = ORIENTED_EDGE ( 'NONE', *, *, #248, .T. ) ;
#203 = APPLICATION_CONTEXT ( 'configuration controlled 3d designs of mechanical parts and assemblies' ) ;
#204 = CC_DESIGN_PERSON_AND_ORGANIZATION_ASSIGNMENT ( #114, #228, ( #76 ) ) ;
#205 = APPLICATION_PROTOCOL_DEFINITION ( 'international standard', 'config_control_design', 1994, #78 ) ;
#206 = CARTESIAN_POINT ( 'NONE',  ( 10.00000000000000178, 1.224646799147353454E-15, 8.000000000000000000 ) ) ;
#207 = DIRECTION ( 'NONE',  ( 1.000000000000000000, 0.000000000000000000, 0.000000000000000000 ) ) ;
#208 = SHAPE_DEFINITION_REPRESENTATION ( #217, #95 ) ;
#209 = APPROVAL_DATE_TIME ( #59, #90 ) ;
#210 = FACE_BOUND ( 'NONE', #249, .T. ) ;
#211 = PLANE ( 'NONE',  #77 ) ;
#212 = APPROVAL_ROLE ( '' ) ;
#213 = VERTEX_POINT ( 'NONE', #148 ) ;
#214 = FACE_OUTER_BOUND ( 'NONE', #115, .T. ) ;
#215 = EDGE_LOOP ( 'NONE', ( #12, #107 ) ) ;
#216 = ORIENTED_EDGE ( 'NONE', *, *, #142, .T. ) ;
#217 = PRODUCT_DEFINITION_SHAPE ( 'NONE', 'NONE',  #219 ) ;
#218 = LOCAL_TIME ( 19, 3, 55.00000000000000000, #252 ) ;
#219 = PRODUCT_DEFINITION ( 'NEZNÁMÝ', '', #76, #145 ) ;
#220 = ADVANCED_FACE ( 'NONE', ( #104 ), #211, .F. ) ;
#221 = CALENDAR_DATE ( 2022, 7, 7 ) ;
#222 = DIRECTION ( 'NONE',  ( 0.000000000000000000, 0.000000000000000000, 1.000000000000000000 ) ) ;
#223 = CARTESIAN_POINT ( 'NONE',  ( 0.000000000000000000, 0.000000000000000000, 0.000000000000000000 ) ) ;
#224 = DIRECTION ( 'NONE',  ( 0.000000000000000000, 0.000000000000000000, 1.000000000000000000 ) ) ;
#225 = APPROVAL_STATUS ( 'not_yet_approved' ) ;
#226 = CARTESIAN_POINT ( 'NONE',  ( 0.000000000000000000, 0.000000000000000000, 208.0000000000000284 ) ) ;
#227 = CARTESIAN_POINT ( 'NONE',  ( -13.00000000000000178, 0.000000000000000000, 8.000000000000000000 ) ) ;
#228 = PERSON_AND_ORGANIZATION_ROLE ( 'design_supplier' ) ;
#229 = APPROVAL_PERSON_ORGANIZATION ( #241, #90, #127 ) ;
#230 = ORIENTED_EDGE ( 'NONE', *, *, #237, .F. ) ;
#231 = ADVANCED_FACE ( 'NONE', ( #82 ), #10, .T. ) ;
#232 = CARTESIAN_POINT ( 'NONE',  ( 0.000000000000000000, 0.000000000000000000, 8.000000000000000000 ) ) ;
#233 = COORDINATED_UNIVERSAL_TIME_OFFSET ( 1, 0, .AHEAD. ) ;
#234 = ORIENTED_EDGE ( 'NONE', *, *, #237, .T. ) ;
#235 = ORIENTED_EDGE ( 'NONE', *, *, #8, .F. ) ;
#236 = EDGE_CURVE ( 'NONE', #174, #213, #143, .T. ) ;
#237 = EDGE_CURVE ( 'NONE', #91, #157, #189, .T. ) ;
#238 = CC_DESIGN_PERSON_AND_ORGANIZATION_ASSIGNMENT ( #68, #247, ( #168 ) ) ;
#239 = CIRCLE ( 'NONE', #154, 10.00000000000000178 ) ;
#240 = AXIS2_PLACEMENT_3D ( 'NONE', #188, #222, #184 ) ;
#241 = PERSON_AND_ORGANIZATION ( #129, #124 ) ;
#242 = PERSON_AND_ORGANIZATION ( #129, #124 ) ;
#243 = DIRECTION ( 'NONE',  ( 0.000000000000000000, 0.000000000000000000, 1.000000000000000000 ) ) ;
#244 = DIRECTION ( 'NONE',  ( -1.000000000000000000, 0.000000000000000000, 0.000000000000000000 ) ) ;
#245 = DIRECTION ( 'NONE',  ( -0.000000000000000000, -0.000000000000000000, -1.000000000000000000 ) ) ;
#246 = DIRECTION ( 'NONE',  ( -0.000000000000000000, -0.000000000000000000, -1.000000000000000000 ) ) ;
#247 = PERSON_AND_ORGANIZATION_ROLE ( 'classification_officer' ) ;
#248 = EDGE_CURVE ( 'NONE', #91, #197, #65, .T. ) ;
#249 = EDGE_LOOP ( 'NONE', ( #140, #72 ) ) ;
#250 = DIRECTION ( 'NONE',  ( -1.000000000000000000, 0.000000000000000000, 0.000000000000000000 ) ) ;
#251 = AXIS2_PLACEMENT_3D ( 'NONE', #2, #32, #207 ) ;
#252 = COORDINATED_UNIVERSAL_TIME_OFFSET ( 1, 0, .AHEAD. ) ;
#253 = VERTEX_POINT ( 'NONE', #125 ) ;
#254 = CARTESIAN_POINT ( 'NONE',  ( 0.000000000000000000, 0.000000000000000000, 0.000000000000000000 ) ) ;
#255 = VECTOR ( 'NONE', #79, 1000.000000000000000 ) ;
ENDSEC;
END-ISO-10303-21;
