ISO-10303-21;
HEADER;
FILE_DESCRIPTION (( 'STEP AP203' ),
    '1' );
FILE_NAME ('357f.STEP',
    '2022-07-07T17:32:51',
    ( '' ),
    ( '' ),
    'SwSTEP 2.0',
    'SolidWorks 2019',
    '' );
FILE_SCHEMA (( 'CONFIG_CONTROL_DESIGN' ));
ENDSEC;

DATA;
#1 = EDGE_CURVE ( 'NONE', #206, #28, #56, .T. ) ;
#2 = EDGE_LOOP ( 'NONE', ( #228, #32 ) ) ;
#3 = DIRECTION ( 'NONE',  ( 0.000000000000000000, 0.000000000000000000, 1.000000000000000000 ) ) ;
#4 = AXIS2_PLACEMENT_3D ( 'NONE', #35, #29, #234 ) ;
#5 = VERTEX_POINT ( 'NONE', #34 ) ;
#6 = DIRECTION ( 'NONE',  ( -0.000000000000000000, -0.000000000000000000, -1.000000000000000000 ) ) ;
#7 = CC_DESIGN_DATE_AND_TIME_ASSIGNMENT ( #117, #59, ( #126 ) ) ;
#8 = CARTESIAN_POINT ( 'NONE',  ( -7.000000000000000000, 0.000000000000000000, 5.000000000000000000 ) ) ;
#9 = EDGE_LOOP ( 'NONE', ( #91, #42 ) ) ;
#10 = LINE ( 'NONE', #172, #219 ) ;
#11 = APPROVAL_ROLE ( '' ) ;
#12 = CARTESIAN_POINT ( 'NONE',  ( 7.000000000000000000, 8.572527594031473190E-16, 0.000000000000000000 ) ) ;
#13 = CARTESIAN_POINT ( 'NONE',  ( 0.000000000000000000, 0.000000000000000000, 5.000000000000000000 ) ) ;
#14 = CARTESIAN_POINT ( 'NONE',  ( -4.000000000000000000, 0.000000000000000000, 320.0000000000000000 ) ) ;
#15 = CALENDAR_DATE ( 2022, 7, 7 ) ;
#16 = AXIS2_PLACEMENT_3D ( 'NONE', #231, #50, #156 ) ;
#17 = AXIS2_PLACEMENT_3D ( 'NONE', #13, #252, #150 ) ;
#18 = ADVANCED_FACE ( 'NONE', ( #65 ), #245, .F. ) ;
#19 = DIRECTION ( 'NONE',  ( 1.000000000000000000, 0.000000000000000000, 0.000000000000000000 ) ) ;
#20 =( NAMED_UNIT ( * ) PLANE_ANGLE_UNIT ( ) SI_UNIT ( $, .RADIAN. ) );
#21 = DIRECTION ( 'NONE',  ( -0.000000000000000000, -0.000000000000000000, -1.000000000000000000 ) ) ;
#22 = PERSON_AND_ORGANIZATION ( #226, #255 ) ;
#23 = EDGE_CURVE ( 'NONE', #111, #71, #179, .T. ) ;
#24 = CIRCLE ( 'NONE', #17, 7.000000000000000000 ) ;
#25 = PRODUCT_DEFINITION_SHAPE ( 'NONE', 'NONE',  #104 ) ;
#26 = CC_DESIGN_PERSON_AND_ORGANIZATION_ASSIGNMENT ( #141, #250, ( #64 ) ) ;
#27 = CARTESIAN_POINT ( 'NONE',  ( 0.000000000000000000, 0.000000000000000000, 0.000000000000000000 ) ) ;
#28 = VERTEX_POINT ( 'NONE', #192 ) ;
#29 = DIRECTION ( 'NONE',  ( -0.000000000000000000, -0.000000000000000000, -1.000000000000000000 ) ) ;
#30 = AXIS2_PLACEMENT_3D ( 'NONE', #27, #114, #105 ) ;
#31 = AXIS2_PLACEMENT_3D ( 'NONE', #89, #157, #87 ) ;
#32 = ORIENTED_EDGE ( 'NONE', *, *, #60, .F. ) ;
#33 = DIRECTION ( 'NONE',  ( 1.000000000000000000, 0.000000000000000000, 0.000000000000000000 ) ) ;
#34 = CARTESIAN_POINT ( 'NONE',  ( 7.000000000000000000, 8.572527594031473190E-16, 5.000000000000000000 ) ) ;
#35 = CARTESIAN_POINT ( 'NONE',  ( 0.000000000000000000, 0.000000000000000000, 320.0000000000000000 ) ) ;
#36 =( LENGTH_UNIT ( ) NAMED_UNIT ( * ) SI_UNIT ( .MILLI., .METRE. ) );
#37 = CYLINDRICAL_SURFACE ( 'NONE', #4, 4.000000000000000000 ) ;
#38 = LOCAL_TIME ( 19, 32, 51.00000000000000000, #124 ) ;
#39 = PERSON_AND_ORGANIZATION_ROLE ( 'creator' ) ;
#40 = LOCAL_TIME ( 19, 32, 51.00000000000000000, #199 ) ;
#41 = CC_DESIGN_PERSON_AND_ORGANIZATION_ASSIGNMENT ( #120, #39, ( #144 ) ) ;
#42 = ORIENTED_EDGE ( 'NONE', *, *, #72, .F. ) ;
#43 = LOCAL_TIME ( 19, 32, 51.00000000000000000, #217 ) ;
#44 = VERTEX_POINT ( 'NONE', #12 ) ;
#45 = ADVANCED_FACE ( 'NONE', ( #173 ), #246, .T. ) ;
#46 = FACE_BOUND ( 'NONE', #9, .T. ) ;
#47 = ORIENTED_EDGE ( 'NONE', *, *, #146, .T. ) ;
#48 = PLANE ( 'NONE',  #85 ) ;
#49 = AXIS2_PLACEMENT_3D ( 'NONE', #115, #6, #131 ) ;
#50 = DIRECTION ( 'NONE',  ( 0.000000000000000000, 0.000000000000000000, 1.000000000000000000 ) ) ;
#51 = CARTESIAN_POINT ( 'NONE',  ( 4.000000000000000000, 4.898587196589412829E-16, 5.000000000000000000 ) ) ;
#52 = CC_DESIGN_SECURITY_CLASSIFICATION ( #126, ( #144 ) ) ;
#53 = DIRECTION ( 'NONE',  ( 1.000000000000000000, 0.000000000000000000, 0.000000000000000000 ) ) ;
#54 = PLANE ( 'NONE',  #204 ) ;
#55 = COORDINATED_UNIVERSAL_TIME_OFFSET ( 1, 0, .AHEAD. ) ;
#56 = CIRCLE ( 'NONE', #222, 4.000000000000000000 ) ;
#57 = APPROVAL_STATUS ( 'not_yet_approved' ) ;
#58 = VECTOR ( 'NONE', #116, 1000.000000000000000 ) ;
#59 = DATE_TIME_ROLE ( 'classification_date' ) ;
#60 = EDGE_CURVE ( 'NONE', #44, #183, #163, .T. ) ;
#61 = LOCAL_TIME ( 19, 32, 51.00000000000000000, #81 ) ;
#62 = CIRCLE ( 'NONE', #181, 7.000000000000000000 ) ;
#63 = APPLICATION_CONTEXT ( 'configuration controlled 3d designs of mechanical parts and assemblies' ) ;
#64 = PRODUCT ( '357f', '357f', '', ( #237 ) ) ;
#65 = FACE_OUTER_BOUND ( 'NONE', #2, .T. ) ;
#66 = ADVANCED_FACE ( 'NONE', ( #46, #108 ), #48, .T. ) ;
#67 = ORIENTED_EDGE ( 'NONE', *, *, #72, .T. ) ;
#68 = CARTESIAN_POINT ( 'NONE',  ( 0.000000000000000000, 0.000000000000000000, 5.000000000000000000 ) ) ;
#69 = ORIENTED_EDGE ( 'NONE', *, *, #223, .F. ) ;
#70 = CARTESIAN_POINT ( 'NONE',  ( 0.000000000000000000, 0.000000000000000000, 5.000000000000000000 ) ) ;
#71 = VERTEX_POINT ( 'NONE', #51 ) ;
#72 = EDGE_CURVE ( 'NONE', #71, #111, #103, .T. ) ;
#73 = CARTESIAN_POINT ( 'NONE',  ( -7.000000000000000000, 0.000000000000000000, 0.000000000000000000 ) ) ;
#74 = UNCERTAINTY_MEASURE_WITH_UNIT (LENGTH_MEASURE( 1.000000000000000082E-05 ), #36, 'distance_accuracy_value', 'NONE');
#75 = CALENDAR_DATE ( 2022, 7, 7 ) ;
#76 = ORIENTED_EDGE ( 'NONE', *, *, #240, .F. ) ;
#77 = LINE ( 'NONE', #210, #149 ) ;
#78 = APPROVAL_PERSON_ORGANIZATION ( #160, #180, #11 ) ;
#79 = DIRECTION ( 'NONE',  ( 0.000000000000000000, 0.000000000000000000, 1.000000000000000000 ) ) ;
#80 = ADVANCED_BREP_SHAPE_REPRESENTATION ( '357f', ( #236, #145 ), #254 ) ;
#81 = COORDINATED_UNIVERSAL_TIME_OFFSET ( 1, 0, .AHEAD. ) ;
#82 = APPROVAL_DATE_TIME ( #200, #121 ) ;
#83 = ADVANCED_FACE ( 'NONE', ( #97 ), #37, .T. ) ;
#84 = CIRCLE ( 'NONE', #182, 7.000000000000000000 ) ;
#85 = AXIS2_PLACEMENT_3D ( 'NONE', #70, #190, #194 ) ;
#86 = APPROVAL ( #123, 'NEURÈENÝ' ) ;
#87 = DIRECTION ( 'NONE',  ( -1.000000000000000000, 0.000000000000000000, 0.000000000000000000 ) ) ;
#88 = DIRECTION ( 'NONE',  ( 1.000000000000000000, 0.000000000000000000, 0.000000000000000000 ) ) ;
#89 = CARTESIAN_POINT ( 'NONE',  ( 0.000000000000000000, 0.000000000000000000, 5.000000000000000000 ) ) ;
#90 = DIRECTION ( 'NONE',  ( 0.000000000000000000, 0.000000000000000000, 1.000000000000000000 ) ) ;
#91 = ORIENTED_EDGE ( 'NONE', *, *, #23, .F. ) ;
#92 = DIRECTION ( 'NONE',  ( 1.000000000000000000, 0.000000000000000000, 0.000000000000000000 ) ) ;
#93 = PERSON_AND_ORGANIZATION_ROLE ( 'creator' ) ;
#94 = DIRECTION ( 'NONE',  ( 0.000000000000000000, 0.000000000000000000, 1.000000000000000000 ) ) ;
#95 = DIRECTION ( 'NONE',  ( 0.000000000000000000, 0.000000000000000000, 1.000000000000000000 ) ) ;
#96 = CARTESIAN_POINT ( 'NONE',  ( 0.000000000000000000, 0.000000000000000000, 320.0000000000000000 ) ) ;
#97 = FACE_OUTER_BOUND ( 'NONE', #171, .T. ) ;
#98 = APPROVAL_PERSON_ORGANIZATION ( #198, #121, #125 ) ;
#99 = PERSON_AND_ORGANIZATION ( #226, #255 ) ;
#100 = ADVANCED_FACE ( 'NONE', ( #227 ), #187, .T. ) ;
#101 =( NAMED_UNIT ( * ) SI_UNIT ( $, .STERADIAN. ) SOLID_ANGLE_UNIT ( ) );
#102 = ADVANCED_FACE ( 'NONE', ( #152 ), #54, .T. ) ;
#103 = CIRCLE ( 'NONE', #128, 4.000000000000000000 ) ;
#104 = PRODUCT_DEFINITION ( 'NEZNÁMÝ', '', #144, #159 ) ;
#105 = DIRECTION ( 'NONE',  ( 1.000000000000000000, 0.000000000000000000, -0.000000000000000000 ) ) ;
#106 = CARTESIAN_POINT ( 'NONE',  ( 0.000000000000000000, 0.000000000000000000, 0.000000000000000000 ) ) ;
#107 = EDGE_LOOP ( 'NONE', ( #129, #148, #147, #76 ) ) ;
#108 = FACE_OUTER_BOUND ( 'NONE', #225, .T. ) ;
#109 = CC_DESIGN_DATE_AND_TIME_ASSIGNMENT ( #155, #137, ( #104 ) ) ;
#110 = DATE_AND_TIME ( #195, #40 ) ;
#111 = VERTEX_POINT ( 'NONE', #229 ) ;
#112 = DIRECTION ( 'NONE',  ( 0.000000000000000000, 0.000000000000000000, 1.000000000000000000 ) ) ;
#113 = APPLICATION_CONTEXT ( 'configuration controlled 3d designs of mechanical parts and assemblies' ) ;
#114 = DIRECTION ( 'NONE',  ( 0.000000000000000000, 0.000000000000000000, 1.000000000000000000 ) ) ;
#115 = CARTESIAN_POINT ( 'NONE',  ( 0.000000000000000000, 0.000000000000000000, 320.0000000000000000 ) ) ;
#116 = DIRECTION ( 'NONE',  ( -0.000000000000000000, -0.000000000000000000, -1.000000000000000000 ) ) ;
#117 = DATE_AND_TIME ( #15, #61 ) ;
#118 = DIRECTION ( 'NONE',  ( -0.000000000000000000, -0.000000000000000000, -1.000000000000000000 ) ) ;
#119 = APPLICATION_PROTOCOL_DEFINITION ( 'international standard', 'config_control_design', 1994, #63 ) ;
#120 = PERSON_AND_ORGANIZATION ( #226, #255 ) ;
#121 = APPROVAL ( #57, 'NEURÈENÝ' ) ;
#122 = AXIS2_PLACEMENT_3D ( 'NONE', #96, #90, #176 ) ;
#123 = APPROVAL_STATUS ( 'not_yet_approved' ) ;
#124 = COORDINATED_UNIVERSAL_TIME_OFFSET ( 1, 0, .AHEAD. ) ;
#125 = APPROVAL_ROLE ( '' ) ;
#126 = SECURITY_CLASSIFICATION ( '', '', #220 ) ;
#127 = EDGE_CURVE ( 'NONE', #5, #251, #24, .T. ) ;
#128 = AXIS2_PLACEMENT_3D ( 'NONE', #175, #3, #249 ) ;
#129 = ORIENTED_EDGE ( 'NONE', *, *, #127, .F. ) ;
#130 = ORIENTED_EDGE ( 'NONE', *, *, #167, .T. ) ;
#131 = DIRECTION ( 'NONE',  ( -1.000000000000000000, 0.000000000000000000, 0.000000000000000000 ) ) ;
#132 = ORIENTED_EDGE ( 'NONE', *, *, #240, .T. ) ;
#133 = CARTESIAN_POINT ( 'NONE',  ( 0.000000000000000000, 0.000000000000000000, 320.0000000000000000 ) ) ;
#134 = APPROVAL_STATUS ( 'not_yet_approved' ) ;
#135 = ORIENTED_EDGE ( 'NONE', *, *, #127, .T. ) ;
#136 = CARTESIAN_POINT ( 'NONE',  ( 0.000000000000000000, 0.000000000000000000, 5.000000000000000000 ) ) ;
#137 = DATE_TIME_ROLE ( 'creation_date' ) ;
#138 = DIRECTION ( 'NONE',  ( 0.000000000000000000, 0.000000000000000000, 1.000000000000000000 ) ) ;
#139 = APPROVAL_DATE_TIME ( #235, #180 ) ;
#140 = CC_DESIGN_PERSON_AND_ORGANIZATION_ASSIGNMENT ( #211, #93, ( #104 ) ) ;
#141 = PERSON_AND_ORGANIZATION ( #226, #255 ) ;
#142 = PERSON_AND_ORGANIZATION ( #226, #255 ) ;
#143 = CC_DESIGN_APPROVAL ( #86, ( #144 ) ) ;
#144 = PRODUCT_DEFINITION_FORMATION_WITH_SPECIFIED_SOURCE ( 'LIBOVOLNÝ', '', #64, .NOT_KNOWN. ) ;
#145 = AXIS2_PLACEMENT_3D ( 'NONE', #230, #79, #53 ) ;
#146 = EDGE_CURVE ( 'NONE', #28, #71, #77, .T. ) ;
#147 = ORIENTED_EDGE ( 'NONE', *, *, #60, .T. ) ;
#148 = ORIENTED_EDGE ( 'NONE', *, *, #174, .T. ) ;
#149 = VECTOR ( 'NONE', #118, 1000.000000000000000 ) ;
#150 = DIRECTION ( 'NONE',  ( 1.000000000000000000, 0.000000000000000000, 0.000000000000000000 ) ) ;
#151 = EDGE_LOOP ( 'NONE', ( #189, #212, #132, #186 ) ) ;
#152 = FACE_OUTER_BOUND ( 'NONE', #233, .T. ) ;
#153 = ORIENTED_EDGE ( 'NONE', *, *, #223, .T. ) ;
#154 = DIRECTION ( 'NONE',  ( -0.000000000000000000, -0.000000000000000000, -1.000000000000000000 ) ) ;
#155 = DATE_AND_TIME ( #191, #43 ) ;
#156 = DIRECTION ( 'NONE',  ( 1.000000000000000000, 0.000000000000000000, 0.000000000000000000 ) ) ;
#157 = DIRECTION ( 'NONE',  ( -0.000000000000000000, -0.000000000000000000, -1.000000000000000000 ) ) ;
#158 = EDGE_CURVE ( 'NONE', #183, #44, #62, .T. ) ;
#159 = DESIGN_CONTEXT ( 'detailed design', #63, 'design' ) ;
#160 = PERSON_AND_ORGANIZATION ( #226, #255 ) ;
#161 = PERSON_AND_ORGANIZATION_ROLE ( 'classification_officer' ) ;
#162 = SHAPE_DEFINITION_REPRESENTATION ( #25, #80 ) ;
#163 = CIRCLE ( 'NONE', #201, 7.000000000000000000 ) ;
#164 = CARTESIAN_POINT ( 'NONE',  ( 0.000000000000000000, 0.000000000000000000, 320.0000000000000000 ) ) ;
#165 = CLOSED_SHELL ( 'NONE', ( #45, #202, #100, #66, #18, #83, #102 ) ) ;
#166 = FACE_OUTER_BOUND ( 'NONE', #107, .T. ) ;
#167 = EDGE_CURVE ( 'NONE', #251, #5, #84, .T. ) ;
#168 = EDGE_LOOP ( 'NONE', ( #69, #47, #67, #207 ) ) ;
#169 = CIRCLE ( 'NONE', #122, 4.000000000000000000 ) ;
#170 = DIRECTION ( 'NONE',  ( 1.000000000000000000, 0.000000000000000000, -0.000000000000000000 ) ) ;
#171 = EDGE_LOOP ( 'NONE', ( #209, #241, #224, #242 ) ) ;
#172 = CARTESIAN_POINT ( 'NONE',  ( 7.000000000000000000, 8.572527594031473190E-16, 5.000000000000000000 ) ) ;
#173 = FACE_OUTER_BOUND ( 'NONE', #168, .T. ) ;
#174 = EDGE_CURVE ( 'NONE', #5, #44, #10, .T. ) ;
#175 = CARTESIAN_POINT ( 'NONE',  ( 0.000000000000000000, 0.000000000000000000, 5.000000000000000000 ) ) ;
#176 = DIRECTION ( 'NONE',  ( 1.000000000000000000, 0.000000000000000000, 0.000000000000000000 ) ) ;
#177 = APPROVAL_PERSON_ORGANIZATION ( #99, #86, #215 ) ;
#178 = LINE ( 'NONE', #8, #58 ) ;
#179 = CIRCLE ( 'NONE', #16, 4.000000000000000000 ) ;
#180 = APPROVAL ( #134, 'NEURÈENÝ' ) ;
#181 = AXIS2_PLACEMENT_3D ( 'NONE', #106, #138, #33 ) ;
#182 = AXIS2_PLACEMENT_3D ( 'NONE', #136, #112, #92 ) ;
#183 = VERTEX_POINT ( 'NONE', #73 ) ;
#184 = DIRECTION ( 'NONE',  ( -0.000000000000000000, -0.000000000000000000, -1.000000000000000000 ) ) ;
#185 = CC_DESIGN_PERSON_AND_ORGANIZATION_ASSIGNMENT ( #142, #161, ( #126 ) ) ;
#186 = ORIENTED_EDGE ( 'NONE', *, *, #158, .T. ) ;
#187 = CYLINDRICAL_SURFACE ( 'NONE', #31, 7.000000000000000000 ) ;
#188 = APPROVAL_DATE_TIME ( #110, #86 ) ;
#189 = ORIENTED_EDGE ( 'NONE', *, *, #174, .F. ) ;
#190 = DIRECTION ( 'NONE',  ( 0.000000000000000000, 0.000000000000000000, 1.000000000000000000 ) ) ;
#191 = CALENDAR_DATE ( 2022, 7, 7 ) ;
#192 = CARTESIAN_POINT ( 'NONE',  ( 4.000000000000000000, 4.898587196589412829E-16, 320.0000000000000000 ) ) ;
#193 = CC_DESIGN_PERSON_AND_ORGANIZATION_ASSIGNMENT ( #22, #239, ( #144 ) ) ;
#194 = DIRECTION ( 'NONE',  ( 1.000000000000000000, 0.000000000000000000, -0.000000000000000000 ) ) ;
#195 = CALENDAR_DATE ( 2022, 7, 7 ) ;
#196 = LINE ( 'NONE', #14, #213 ) ;
#197 = APPLICATION_PROTOCOL_DEFINITION ( 'international standard', 'config_control_design', 1994, #113 ) ;
#198 = PERSON_AND_ORGANIZATION ( #226, #255 ) ;
#199 = COORDINATED_UNIVERSAL_TIME_OFFSET ( 1, 0, .AHEAD. ) ;
#200 = DATE_AND_TIME ( #253, #38 ) ;
#201 = AXIS2_PLACEMENT_3D ( 'NONE', #208, #95, #19 ) ;
#202 = ADVANCED_FACE ( 'NONE', ( #166 ), #216, .T. ) ;
#203 = LOCAL_TIME ( 19, 32, 51.00000000000000000, #55 ) ;
#204 = AXIS2_PLACEMENT_3D ( 'NONE', #133, #243, #170 ) ;
#205 = CC_DESIGN_APPROVAL ( #121, ( #126 ) ) ;
#206 = VERTEX_POINT ( 'NONE', #232 ) ;
#207 = ORIENTED_EDGE ( 'NONE', *, *, #218, .F. ) ;
#208 = CARTESIAN_POINT ( 'NONE',  ( 0.000000000000000000, 0.000000000000000000, 0.000000000000000000 ) ) ;
#209 = ORIENTED_EDGE ( 'NONE', *, *, #146, .F. ) ;
#210 = CARTESIAN_POINT ( 'NONE',  ( 4.000000000000000000, 4.898587196589412829E-16, 320.0000000000000000 ) ) ;
#211 = PERSON_AND_ORGANIZATION ( #226, #255 ) ;
#212 = ORIENTED_EDGE ( 'NONE', *, *, #167, .F. ) ;
#213 = VECTOR ( 'NONE', #21, 1000.000000000000000 ) ;
#214 = DIRECTION ( 'NONE',  ( -1.000000000000000000, 0.000000000000000000, 0.000000000000000000 ) ) ;
#215 = APPROVAL_ROLE ( '' ) ;
#216 = CYLINDRICAL_SURFACE ( 'NONE', #244, 7.000000000000000000 ) ;
#217 = COORDINATED_UNIVERSAL_TIME_OFFSET ( 1, 0, .AHEAD. ) ;
#218 = EDGE_CURVE ( 'NONE', #206, #111, #196, .T. ) ;
#219 = VECTOR ( 'NONE', #184, 1000.000000000000000 ) ;
#220 = SECURITY_CLASSIFICATION_LEVEL ( 'unclassified' ) ;
#221 = CC_DESIGN_APPROVAL ( #180, ( #104 ) ) ;
#222 = AXIS2_PLACEMENT_3D ( 'NONE', #164, #94, #88 ) ;
#223 = EDGE_CURVE ( 'NONE', #28, #206, #169, .T. ) ;
#224 = ORIENTED_EDGE ( 'NONE', *, *, #218, .T. ) ;
#225 = EDGE_LOOP ( 'NONE', ( #130, #135 ) ) ;
#226 = PERSON ( 'NEURÈENÝ', 'NEURÈENÝ', 'NEURÈENÝ', ('NEURÈENÝ'), ('NEURÈENÝ'), ('NEURÈENÝ') ) ;
#227 = FACE_OUTER_BOUND ( 'NONE', #151, .T. ) ;
#228 = ORIENTED_EDGE ( 'NONE', *, *, #158, .F. ) ;
#229 = CARTESIAN_POINT ( 'NONE',  ( -4.000000000000000000, 0.000000000000000000, 5.000000000000000000 ) ) ;
#230 = CARTESIAN_POINT ( 'NONE',  ( 0.000000000000000000, 0.000000000000000000, 0.000000000000000000 ) ) ;
#231 = CARTESIAN_POINT ( 'NONE',  ( 0.000000000000000000, 0.000000000000000000, 5.000000000000000000 ) ) ;
#232 = CARTESIAN_POINT ( 'NONE',  ( -4.000000000000000000, 0.000000000000000000, 320.0000000000000000 ) ) ;
#233 = EDGE_LOOP ( 'NONE', ( #248, #153 ) ) ;
#234 = DIRECTION ( 'NONE',  ( -1.000000000000000000, 0.000000000000000000, 0.000000000000000000 ) ) ;
#235 = DATE_AND_TIME ( #75, #203 ) ;
#236 = MANIFOLD_SOLID_BREP ( 'Pøidat vysunutím3', #165 ) ;
#237 = MECHANICAL_CONTEXT ( 'NONE', #113, 'mechanical' ) ;
#238 = PRODUCT_RELATED_PRODUCT_CATEGORY ( 'detail', '', ( #64 ) ) ;
#239 = PERSON_AND_ORGANIZATION_ROLE ( 'design_supplier' ) ;
#240 = EDGE_CURVE ( 'NONE', #251, #183, #178, .T. ) ;
#241 = ORIENTED_EDGE ( 'NONE', *, *, #1, .F. ) ;
#242 = ORIENTED_EDGE ( 'NONE', *, *, #23, .T. ) ;
#243 = DIRECTION ( 'NONE',  ( 0.000000000000000000, 0.000000000000000000, 1.000000000000000000 ) ) ;
#244 = AXIS2_PLACEMENT_3D ( 'NONE', #68, #154, #214 ) ;
#245 = PLANE ( 'NONE',  #30 ) ;
#246 = CYLINDRICAL_SURFACE ( 'NONE', #49, 4.000000000000000000 ) ;
#247 = CARTESIAN_POINT ( 'NONE',  ( -7.000000000000000000, 0.000000000000000000, 5.000000000000000000 ) ) ;
#248 = ORIENTED_EDGE ( 'NONE', *, *, #1, .T. ) ;
#249 = DIRECTION ( 'NONE',  ( 1.000000000000000000, 0.000000000000000000, 0.000000000000000000 ) ) ;
#250 = PERSON_AND_ORGANIZATION_ROLE ( 'design_owner' ) ;
#251 = VERTEX_POINT ( 'NONE', #247 ) ;
#252 = DIRECTION ( 'NONE',  ( 0.000000000000000000, 0.000000000000000000, 1.000000000000000000 ) ) ;
#253 = CALENDAR_DATE ( 2022, 7, 7 ) ;
#254 =( GEOMETRIC_REPRESENTATION_CONTEXT ( 3 ) GLOBAL_UNCERTAINTY_ASSIGNED_CONTEXT ( ( #74 ) ) GLOBAL_UNIT_ASSIGNED_CONTEXT ( ( #36, #20, #101 ) ) REPRESENTATION_CONTEXT ( 'NONE', 'WORKASPACE' ) );
#255 = ORGANIZATION ( 'NEURÈENÝ', 'NEURÈENÝ', '' ) ;
ENDSEC;
END-ISO-10303-21;
