ISO-10303-21;
HEADER;
FILE_DESCRIPTION (( 'STEP AP203' ),
    '1' );
FILE_NAME ('8d79.STEP',
    '2022-07-07T18:00:36',
    ( '' ),
    ( '' ),
    'SwSTEP 2.0',
    'SolidWorks 2019',
    '' );
FILE_SCHEMA (( 'CONFIG_CONTROL_DESIGN' ));
ENDSEC;

DATA;
#1 = CALENDAR_DATE ( 2022, 7, 7 ) ;
#2 = DIRECTION ( 'NONE',  ( -0.000000000000000000, -0.000000000000000000, -1.000000000000000000 ) ) ;
#3 = DIRECTION ( 'NONE',  ( -0.000000000000000000, -0.000000000000000000, -1.000000000000000000 ) ) ;
#4 = CARTESIAN_POINT ( 'NONE',  ( 0.000000000000000000, 0.000000000000000000, 0.000000000000000000 ) ) ;
#5 = FACE_OUTER_BOUND ( 'NONE', #70, .T. ) ;
#6 = CIRCLE ( 'NONE', #253, 2.000000000000000000 ) ;
#7 = CARTESIAN_POINT ( 'NONE',  ( 0.000000000000000000, 0.000000000000000000, 102.0000000000000142 ) ) ;
#8 = ADVANCED_FACE ( 'NONE', ( #32 ), #178, .F. ) ;
#9 = DIRECTION ( 'NONE',  ( -0.000000000000000000, -0.000000000000000000, -1.000000000000000000 ) ) ;
#10 = EDGE_LOOP ( 'NONE', ( #190, #192, #147, #50 ) ) ;
#11 = APPROVAL ( #218, 'NEURÈENÝ' ) ;
#12 = CC_DESIGN_APPROVAL ( #11, ( #111 ) ) ;
#13 = ORIENTED_EDGE ( 'NONE', *, *, #237, .T. ) ;
#14 = AXIS2_PLACEMENT_3D ( 'NONE', #217, #81, #198 ) ;
#15 = VERTEX_POINT ( 'NONE', #119 ) ;
#16 = ORIENTED_EDGE ( 'NONE', *, *, #182, .F. ) ;
#17 = PERSON ( 'NEURÈENÝ', 'NEURÈENÝ', 'NEURÈENÝ', ('NEURÈENÝ'), ('NEURÈENÝ'), ('NEURÈENÝ') ) ;
#18 = CC_DESIGN_APPROVAL ( #184, ( #251 ) ) ;
#19 = MECHANICAL_CONTEXT ( 'NONE', #173, 'mechanical' ) ;
#20 = PERSON_AND_ORGANIZATION ( #17, #209 ) ;
#21 = ADVANCED_FACE ( 'NONE', ( #220 ), #78, .T. ) ;
#22 = DIRECTION ( 'NONE',  ( 0.000000000000000000, 0.000000000000000000, 1.000000000000000000 ) ) ;
#23 = PERSON_AND_ORGANIZATION ( #17, #209 ) ;
#24 = DIRECTION ( 'NONE',  ( 0.000000000000000000, 0.000000000000000000, 1.000000000000000000 ) ) ;
#25 = DIRECTION ( 'NONE',  ( -0.000000000000000000, -0.000000000000000000, -1.000000000000000000 ) ) ;
#26 = CIRCLE ( 'NONE', #169, 1.100000000000000089 ) ;
#27 = CARTESIAN_POINT ( 'NONE',  ( 0.000000000000000000, 0.000000000000000000, 2.000000000000000000 ) ) ;
#28 = DIRECTION ( 'NONE',  ( -0.000000000000000000, -0.000000000000000000, -1.000000000000000000 ) ) ;
#29 = CARTESIAN_POINT ( 'NONE',  ( 0.000000000000000000, 0.000000000000000000, 102.0000000000000142 ) ) ;
#30 = AXIS2_PLACEMENT_3D ( 'NONE', #245, #140, #31 ) ;
#31 = DIRECTION ( 'NONE',  ( 1.000000000000000000, 0.000000000000000000, -0.000000000000000000 ) ) ;
#32 = FACE_OUTER_BOUND ( 'NONE', #33, .T. ) ;
#33 = EDGE_LOOP ( 'NONE', ( #86, #225 ) ) ;
#34 = APPROVAL_PERSON_ORGANIZATION ( #233, #88, #197 ) ;
#35 = VERTEX_POINT ( 'NONE', #42 ) ;
#36 = PERSON_AND_ORGANIZATION_ROLE ( 'design_owner' ) ;
#37 = APPROVAL_DATE_TIME ( #156, #184 ) ;
#38 = EDGE_CURVE ( 'NONE', #15, #35, #180, .T. ) ;
#39 = DIRECTION ( 'NONE',  ( 1.000000000000000000, 0.000000000000000000, 0.000000000000000000 ) ) ;
#40 = PERSON_AND_ORGANIZATION ( #17, #209 ) ;
#41 = CALENDAR_DATE ( 2022, 7, 7 ) ;
#42 = CARTESIAN_POINT ( 'NONE',  ( -1.100000000000000089, 0.000000000000000000, 102.0000000000000142 ) ) ;
#43 = AXIS2_PLACEMENT_3D ( 'NONE', #123, #204, #185 ) ;
#44 = DIRECTION ( 'NONE',  ( 1.000000000000000000, 0.000000000000000000, 0.000000000000000000 ) ) ;
#45 = CYLINDRICAL_SURFACE ( 'NONE', #114, 1.100000000000000089 ) ;
#46 = DIRECTION ( 'NONE',  ( -0.000000000000000000, -0.000000000000000000, -1.000000000000000000 ) ) ;
#47 = CARTESIAN_POINT ( 'NONE',  ( 1.100000000000000089, 1.347111479062088503E-16, 2.000000000000000000 ) ) ;
#48 = ORIENTED_EDGE ( 'NONE', *, *, #213, .T. ) ;
#49 = DIRECTION ( 'NONE',  ( -1.000000000000000000, 0.000000000000000000, 0.000000000000000000 ) ) ;
#50 = ORIENTED_EDGE ( 'NONE', *, *, #53, .F. ) ;
#51 = ORIENTED_EDGE ( 'NONE', *, *, #194, .T. ) ;
#52 = PRODUCT ( '8d79', '8d79', '', ( #19 ) ) ;
#53 = EDGE_CURVE ( 'NONE', #35, #227, #62, .T. ) ;
#54 = COORDINATED_UNIVERSAL_TIME_OFFSET ( 1, 0, .AHEAD. ) ;
#55 = LOCAL_TIME ( 20, 0, 36.00000000000000000, #94 ) ;
#56 = DATE_TIME_ROLE ( 'classification_date' ) ;
#57 = DATE_AND_TIME ( #154, #241 ) ;
#58 = CIRCLE ( 'NONE', #193, 2.000000000000000000 ) ;
#59 = AXIS2_PLACEMENT_3D ( 'NONE', #226, #46, #49 ) ;
#60 = DIRECTION ( 'NONE',  ( 1.000000000000000000, 0.000000000000000000, -0.000000000000000000 ) ) ;
#61 = APPROVAL_STATUS ( 'not_yet_approved' ) ;
#62 = LINE ( 'NONE', #200, #105 ) ;
#63 = CARTESIAN_POINT ( 'NONE',  ( 0.000000000000000000, 0.000000000000000000, 102.0000000000000142 ) ) ;
#64 = ADVANCED_FACE ( 'NONE', ( #158, #181 ), #98, .T. ) ;
#65 = EDGE_CURVE ( 'NONE', #15, #89, #160, .T. ) ;
#66 = DIRECTION ( 'NONE',  ( 0.000000000000000000, 0.000000000000000000, 1.000000000000000000 ) ) ;
#67 = DIRECTION ( 'NONE',  ( 0.000000000000000000, 0.000000000000000000, 1.000000000000000000 ) ) ;
#68 = LOCAL_TIME ( 20, 0, 36.00000000000000000, #76 ) ;
#69 = CARTESIAN_POINT ( 'NONE',  ( 0.000000000000000000, 0.000000000000000000, 2.000000000000000000 ) ) ;
#70 = EDGE_LOOP ( 'NONE', ( #87, #16, #72, #166 ) ) ;
#71 = ORIENTED_EDGE ( 'NONE', *, *, #219, .F. ) ;
#72 = ORIENTED_EDGE ( 'NONE', *, *, #53, .T. ) ;
#73 = CC_DESIGN_APPROVAL ( #88, ( #223 ) ) ;
#74 = VECTOR ( 'NONE', #240, 1000.000000000000000 ) ;
#75 = PERSON_AND_ORGANIZATION_ROLE ( 'classification_officer' ) ;
#76 = COORDINATED_UNIVERSAL_TIME_OFFSET ( 1, 0, .AHEAD. ) ;
#77 = APPROVAL_ROLE ( '' ) ;
#78 = CYLINDRICAL_SURFACE ( 'NONE', #95, 2.000000000000000000 ) ;
#79 = DIRECTION ( 'NONE',  ( 0.000000000000000000, 0.000000000000000000, 1.000000000000000000 ) ) ;
#80 = CC_DESIGN_PERSON_AND_ORGANIZATION_ASSIGNMENT ( #20, #159, ( #111 ) ) ;
#81 = DIRECTION ( 'NONE',  ( 0.000000000000000000, 0.000000000000000000, 1.000000000000000000 ) ) ;
#82 = LINE ( 'NONE', #183, #74 ) ;
#83 = CARTESIAN_POINT ( 'NONE',  ( 2.000000000000000000, 2.449293598294706414E-16, 2.000000000000000000 ) ) ;
#84 = DIRECTION ( 'NONE',  ( -1.000000000000000000, 0.000000000000000000, 0.000000000000000000 ) ) ;
#85 = CARTESIAN_POINT ( 'NONE',  ( 0.000000000000000000, 0.000000000000000000, 0.000000000000000000 ) ) ;
#86 = ORIENTED_EDGE ( 'NONE', *, *, #99, .F. ) ;
#87 = ORIENTED_EDGE ( 'NONE', *, *, #65, .F. ) ;
#88 = APPROVAL ( #157, 'NEURÈENÝ' ) ;
#89 = VERTEX_POINT ( 'NONE', #47 ) ;
#90 = APPLICATION_PROTOCOL_DEFINITION ( 'international standard', 'config_control_design', 1994, #173 ) ;
#91 = APPROVAL_ROLE ( '' ) ;
#92 = CIRCLE ( 'NONE', #43, 2.000000000000000000 ) ;
#93 = LOCAL_TIME ( 20, 0, 36.00000000000000000, #177 ) ;
#94 = COORDINATED_UNIVERSAL_TIME_OFFSET ( 1, 0, .AHEAD. ) ;
#95 = AXIS2_PLACEMENT_3D ( 'NONE', #134, #2, #238 ) ;
#96 = DATE_TIME_ROLE ( 'creation_date' ) ;
#97 = VECTOR ( 'NONE', #28, 1000.000000000000000 ) ;
#98 = PLANE ( 'NONE',  #155 ) ;
#99 = EDGE_CURVE ( 'NONE', #110, #108, #168, .T. ) ;
#100 = CC_DESIGN_SECURITY_CLASSIFICATION ( #223, ( #251 ) ) ;
#101 = VECTOR ( 'NONE', #3, 1000.000000000000000 ) ;
#102 = CARTESIAN_POINT ( 'NONE',  ( 1.100000000000000089, 1.347111479062088503E-16, 102.0000000000000142 ) ) ;
#103 = CARTESIAN_POINT ( 'NONE',  ( -1.100000000000000089, 0.000000000000000000, 2.000000000000000000 ) ) ;
#104 = CARTESIAN_POINT ( 'NONE',  ( 0.000000000000000000, 0.000000000000000000, 2.000000000000000000 ) ) ;
#105 = VECTOR ( 'NONE', #25, 1000.000000000000000 ) ;
#106 = DIRECTION ( 'NONE',  ( 0.000000000000000000, 0.000000000000000000, 1.000000000000000000 ) ) ;
#107 = FACE_OUTER_BOUND ( 'NONE', #113, .T. ) ;
#108 = VERTEX_POINT ( 'NONE', #165 ) ;
#109 = ADVANCED_FACE ( 'NONE', ( #224 ), #205, .T. ) ;
#110 = VERTEX_POINT ( 'NONE', #188 ) ;
#111 = PRODUCT_DEFINITION ( 'NEZNÁMÝ', '', #251, #141 ) ;
#112 = ORIENTED_EDGE ( 'NONE', *, *, #199, .T. ) ;
#113 = EDGE_LOOP ( 'NONE', ( #229, #126 ) ) ;
#114 = AXIS2_PLACEMENT_3D ( 'NONE', #63, #161, #137 ) ;
#115 = PRODUCT_DEFINITION_SHAPE ( 'NONE', 'NONE',  #111 ) ;
#116 = PERSON_AND_ORGANIZATION ( #17, #209 ) ;
#117 = CALENDAR_DATE ( 2022, 7, 7 ) ;
#118 = DATE_AND_TIME ( #117, #68 ) ;
#119 = CARTESIAN_POINT ( 'NONE',  ( 1.100000000000000089, 1.347111479062088503E-16, 102.0000000000000142 ) ) ;
#120 = DIRECTION ( 'NONE',  ( 1.000000000000000000, 0.000000000000000000, -0.000000000000000000 ) ) ;
#121 =( GEOMETRIC_REPRESENTATION_CONTEXT ( 3 ) GLOBAL_UNCERTAINTY_ASSIGNED_CONTEXT ( ( #244 ) ) GLOBAL_UNIT_ASSIGNED_CONTEXT ( ( #196, #129, #172 ) ) REPRESENTATION_CONTEXT ( 'NONE', 'WORKASPACE' ) );
#122 = DIRECTION ( 'NONE',  ( 0.000000000000000000, 0.000000000000000000, 1.000000000000000000 ) ) ;
#123 = CARTESIAN_POINT ( 'NONE',  ( 0.000000000000000000, 0.000000000000000000, 2.000000000000000000 ) ) ;
#124 = FACE_OUTER_BOUND ( 'NONE', #170, .T. ) ;
#125 = DIRECTION ( 'NONE',  ( 0.000000000000000000, 0.000000000000000000, 1.000000000000000000 ) ) ;
#126 = ORIENTED_EDGE ( 'NONE', *, *, #38, .T. ) ;
#127 = ORIENTED_EDGE ( 'NONE', *, *, #194, .F. ) ;
#128 = PRODUCT_RELATED_PRODUCT_CATEGORY ( 'detail', '', ( #52 ) ) ;
#129 =( NAMED_UNIT ( * ) PLANE_ANGLE_UNIT ( ) SI_UNIT ( $, .RADIAN. ) );
#130 = AXIS2_PLACEMENT_3D ( 'NONE', #85, #125, #144 ) ;
#131 = ADVANCED_FACE ( 'NONE', ( #107 ), #206, .T. ) ;
#132 = APPROVAL_DATE_TIME ( #216, #88 ) ;
#133 = SECURITY_CLASSIFICATION_LEVEL ( 'unclassified' ) ;
#134 = CARTESIAN_POINT ( 'NONE',  ( 0.000000000000000000, 0.000000000000000000, 2.000000000000000000 ) ) ;
#135 = PERSON_AND_ORGANIZATION_ROLE ( 'design_supplier' ) ;
#136 = CARTESIAN_POINT ( 'NONE',  ( 0.000000000000000000, 0.000000000000000000, 2.000000000000000000 ) ) ;
#137 = DIRECTION ( 'NONE',  ( -1.000000000000000000, 0.000000000000000000, 0.000000000000000000 ) ) ;
#138 = AXIS2_PLACEMENT_3D ( 'NONE', #214, #22, #39 ) ;
#139 = DIRECTION ( 'NONE',  ( 1.000000000000000000, 0.000000000000000000, 0.000000000000000000 ) ) ;
#140 = DIRECTION ( 'NONE',  ( 0.000000000000000000, 0.000000000000000000, 1.000000000000000000 ) ) ;
#141 = DESIGN_CONTEXT ( 'detailed design', #228, 'design' ) ;
#142 = ADVANCED_FACE ( 'NONE', ( #124 ), #189, .T. ) ;
#143 = CLOSED_SHELL ( 'NONE', ( #109, #142, #21, #64, #8, #201, #131 ) ) ;
#144 = DIRECTION ( 'NONE',  ( 1.000000000000000000, 0.000000000000000000, 0.000000000000000000 ) ) ;
#145 = ORIENTED_EDGE ( 'NONE', *, *, #99, .T. ) ;
#146 = AXIS2_PLACEMENT_3D ( 'NONE', #7, #67, #164 ) ;
#147 = ORIENTED_EDGE ( 'NONE', *, *, #150, .T. ) ;
#148 = ORIENTED_EDGE ( 'NONE', *, *, #213, .F. ) ;
#149 = MANIFOLD_SOLID_BREP ( 'Pøidat vysunutím3', #143 ) ;
#150 = EDGE_CURVE ( 'NONE', #89, #227, #26, .T. ) ;
#151 = APPROVAL_PERSON_ORGANIZATION ( #23, #184, #77 ) ;
#152 = CC_DESIGN_PERSON_AND_ORGANIZATION_ASSIGNMENT ( #234, #75, ( #223 ) ) ;
#153 = ADVANCED_BREP_SHAPE_REPRESENTATION ( '8d79', ( #149, #138 ), #121 ) ;
#154 = CALENDAR_DATE ( 2022, 7, 7 ) ;
#155 = AXIS2_PLACEMENT_3D ( 'NONE', #136, #79, #120 ) ;
#156 = DATE_AND_TIME ( #1, #93 ) ;
#157 = APPROVAL_STATUS ( 'not_yet_approved' ) ;
#158 = FACE_BOUND ( 'NONE', #207, .T. ) ;
#159 = PERSON_AND_ORGANIZATION_ROLE ( 'creator' ) ;
#160 = LINE ( 'NONE', #102, #101 ) ;
#161 = DIRECTION ( 'NONE',  ( -0.000000000000000000, -0.000000000000000000, -1.000000000000000000 ) ) ;
#162 = DIRECTION ( 'NONE',  ( 0.000000000000000000, 0.000000000000000000, 1.000000000000000000 ) ) ;
#163 = CARTESIAN_POINT ( 'NONE',  ( -2.000000000000000000, 0.000000000000000000, 2.000000000000000000 ) ) ;
#164 = DIRECTION ( 'NONE',  ( 1.000000000000000000, 0.000000000000000000, 0.000000000000000000 ) ) ;
#165 = CARTESIAN_POINT ( 'NONE',  ( 2.000000000000000000, 2.449293598294706414E-16, 0.000000000000000000 ) ) ;
#166 = ORIENTED_EDGE ( 'NONE', *, *, #219, .T. ) ;
#167 = APPROVAL_PERSON_ORGANIZATION ( #116, #11, #91 ) ;
#168 = CIRCLE ( 'NONE', #130, 2.000000000000000000 ) ;
#169 = AXIS2_PLACEMENT_3D ( 'NONE', #69, #106, #243 ) ;
#170 = EDGE_LOOP ( 'NONE', ( #127, #13, #171, #208 ) ) ;
#171 = ORIENTED_EDGE ( 'NONE', *, *, #247, .T. ) ;
#172 =( NAMED_UNIT ( * ) SI_UNIT ( $, .STERADIAN. ) SOLID_ANGLE_UNIT ( ) );
#173 = APPLICATION_CONTEXT ( 'configuration controlled 3d designs of mechanical parts and assemblies' ) ;
#174 = CC_DESIGN_DATE_AND_TIME_ASSIGNMENT ( #57, #56, ( #223 ) ) ;
#175 = CALENDAR_DATE ( 2022, 7, 7 ) ;
#176 = COORDINATED_UNIVERSAL_TIME_OFFSET ( 1, 0, .AHEAD. ) ;
#177 = COORDINATED_UNIVERSAL_TIME_OFFSET ( 1, 0, .AHEAD. ) ;
#178 = PLANE ( 'NONE',  #187 ) ;
#179 = CIRCLE ( 'NONE', #186, 1.100000000000000089 ) ;
#180 = CIRCLE ( 'NONE', #14, 1.100000000000000089 ) ;
#181 = FACE_OUTER_BOUND ( 'NONE', #231, .T. ) ;
#182 = EDGE_CURVE ( 'NONE', #35, #15, #254, .T. ) ;
#183 = CARTESIAN_POINT ( 'NONE',  ( 2.000000000000000000, 2.449293598294706414E-16, 2.000000000000000000 ) ) ;
#184 = APPROVAL ( #61, 'NEURÈENÝ' ) ;
#185 = DIRECTION ( 'NONE',  ( 1.000000000000000000, 0.000000000000000000, 0.000000000000000000 ) ) ;
#186 = AXIS2_PLACEMENT_3D ( 'NONE', #104, #122, #239 ) ;
#187 = AXIS2_PLACEMENT_3D ( 'NONE', #236, #24, #60 ) ;
#188 = CARTESIAN_POINT ( 'NONE',  ( -2.000000000000000000, 0.000000000000000000, 0.000000000000000000 ) ) ;
#189 = CYLINDRICAL_SURFACE ( 'NONE', #59, 2.000000000000000000 ) ;
#190 = ORIENTED_EDGE ( 'NONE', *, *, #38, .F. ) ;
#191 = VERTEX_POINT ( 'NONE', #83 ) ;
#192 = ORIENTED_EDGE ( 'NONE', *, *, #65, .T. ) ;
#193 = AXIS2_PLACEMENT_3D ( 'NONE', #27, #66, #44 ) ;
#194 = EDGE_CURVE ( 'NONE', #191, #210, #92, .T. ) ;
#195 = APPROVAL_DATE_TIME ( #118, #11 ) ;
#196 =( LENGTH_UNIT ( ) NAMED_UNIT ( * ) SI_UNIT ( .MILLI., .METRE. ) );
#197 = APPROVAL_ROLE ( '' ) ;
#198 = DIRECTION ( 'NONE',  ( 1.000000000000000000, 0.000000000000000000, 0.000000000000000000 ) ) ;
#199 = EDGE_CURVE ( 'NONE', #210, #110, #202, .T. ) ;
#200 = CARTESIAN_POINT ( 'NONE',  ( -1.100000000000000089, 0.000000000000000000, 102.0000000000000142 ) ) ;
#201 = ADVANCED_FACE ( 'NONE', ( #5 ), #45, .T. ) ;
#202 = LINE ( 'NONE', #163, #97 ) ;
#203 = CC_DESIGN_PERSON_AND_ORGANIZATION_ASSIGNMENT ( #40, #255, ( #251 ) ) ;
#204 = DIRECTION ( 'NONE',  ( 0.000000000000000000, 0.000000000000000000, 1.000000000000000000 ) ) ;
#205 = CYLINDRICAL_SURFACE ( 'NONE', #242, 1.100000000000000089 ) ;
#206 = PLANE ( 'NONE',  #30 ) ;
#207 = EDGE_LOOP ( 'NONE', ( #71, #249 ) ) ;
#208 = ORIENTED_EDGE ( 'NONE', *, *, #199, .F. ) ;
#209 = ORGANIZATION ( 'NEURÈENÝ', 'NEURÈENÝ', '' ) ;
#210 = VERTEX_POINT ( 'NONE', #222 ) ;
#211 = LOCAL_TIME ( 20, 0, 36.00000000000000000, #176 ) ;
#212 = PERSON_AND_ORGANIZATION ( #17, #209 ) ;
#213 = EDGE_CURVE ( 'NONE', #210, #191, #58, .T. ) ;
#214 = CARTESIAN_POINT ( 'NONE',  ( 0.000000000000000000, 0.000000000000000000, 0.000000000000000000 ) ) ;
#215 = SHAPE_DEFINITION_REPRESENTATION ( #115, #153 ) ;
#216 = DATE_AND_TIME ( #41, #211 ) ;
#217 = CARTESIAN_POINT ( 'NONE',  ( 0.000000000000000000, 0.000000000000000000, 102.0000000000000142 ) ) ;
#218 = APPROVAL_STATUS ( 'not_yet_approved' ) ;
#219 = EDGE_CURVE ( 'NONE', #227, #89, #179, .T. ) ;
#220 = FACE_OUTER_BOUND ( 'NONE', #250, .T. ) ;
#221 = CC_DESIGN_PERSON_AND_ORGANIZATION_ASSIGNMENT ( #235, #135, ( #251 ) ) ;
#222 = CARTESIAN_POINT ( 'NONE',  ( -2.000000000000000000, 0.000000000000000000, 2.000000000000000000 ) ) ;
#223 = SECURITY_CLASSIFICATION ( '', '', #133 ) ;
#224 = FACE_OUTER_BOUND ( 'NONE', #10, .T. ) ;
#225 = ORIENTED_EDGE ( 'NONE', *, *, #247, .F. ) ;
#226 = CARTESIAN_POINT ( 'NONE',  ( 0.000000000000000000, 0.000000000000000000, 2.000000000000000000 ) ) ;
#227 = VERTEX_POINT ( 'NONE', #103 ) ;
#228 = APPLICATION_CONTEXT ( 'configuration controlled 3d designs of mechanical parts and assemblies' ) ;
#229 = ORIENTED_EDGE ( 'NONE', *, *, #182, .T. ) ;
#230 = CC_DESIGN_PERSON_AND_ORGANIZATION_ASSIGNMENT ( #212, #36, ( #52 ) ) ;
#231 = EDGE_LOOP ( 'NONE', ( #48, #51 ) ) ;
#232 = APPLICATION_PROTOCOL_DEFINITION ( 'international standard', 'config_control_design', 1994, #228 ) ;
#233 = PERSON_AND_ORGANIZATION ( #17, #209 ) ;
#234 = PERSON_AND_ORGANIZATION ( #17, #209 ) ;
#235 = PERSON_AND_ORGANIZATION ( #17, #209 ) ;
#236 = CARTESIAN_POINT ( 'NONE',  ( 0.000000000000000000, 0.000000000000000000, 0.000000000000000000 ) ) ;
#237 = EDGE_CURVE ( 'NONE', #191, #108, #82, .T. ) ;
#238 = DIRECTION ( 'NONE',  ( -1.000000000000000000, 0.000000000000000000, 0.000000000000000000 ) ) ;
#239 = DIRECTION ( 'NONE',  ( 1.000000000000000000, 0.000000000000000000, 0.000000000000000000 ) ) ;
#240 = DIRECTION ( 'NONE',  ( -0.000000000000000000, -0.000000000000000000, -1.000000000000000000 ) ) ;
#241 = LOCAL_TIME ( 20, 0, 36.00000000000000000, #54 ) ;
#242 = AXIS2_PLACEMENT_3D ( 'NONE', #29, #9, #84 ) ;
#243 = DIRECTION ( 'NONE',  ( 1.000000000000000000, 0.000000000000000000, 0.000000000000000000 ) ) ;
#244 = UNCERTAINTY_MEASURE_WITH_UNIT (LENGTH_MEASURE( 1.000000000000000082E-05 ), #196, 'distance_accuracy_value', 'NONE');
#245 = CARTESIAN_POINT ( 'NONE',  ( 0.000000000000000000, 0.000000000000000000, 102.0000000000000142 ) ) ;
#246 = ORIENTED_EDGE ( 'NONE', *, *, #237, .F. ) ;
#247 = EDGE_CURVE ( 'NONE', #108, #110, #6, .T. ) ;
#248 = CC_DESIGN_DATE_AND_TIME_ASSIGNMENT ( #252, #96, ( #111 ) ) ;
#249 = ORIENTED_EDGE ( 'NONE', *, *, #150, .F. ) ;
#250 = EDGE_LOOP ( 'NONE', ( #246, #148, #112, #145 ) ) ;
#251 = PRODUCT_DEFINITION_FORMATION_WITH_SPECIFIED_SOURCE ( 'LIBOVOLNÝ', '', #52, .NOT_KNOWN. ) ;
#252 = DATE_AND_TIME ( #175, #55 ) ;
#253 = AXIS2_PLACEMENT_3D ( 'NONE', #4, #162, #139 ) ;
#254 = CIRCLE ( 'NONE', #146, 1.100000000000000089 ) ;
#255 = PERSON_AND_ORGANIZATION_ROLE ( 'creator' ) ;
ENDSEC;
END-ISO-10303-21;
