ISO-10303-21;
HEADER;
FILE_DESCRIPTION (( 'STEP AP203' ),
    '1' );
FILE_NAME ('4098.STEP',
    '2023-02-13T14:52:35',
    ( '' ),
    ( '' ),
    'SwSTEP 2.0',
    'SolidWorks 2019',
    '' );
FILE_SCHEMA (( 'CONFIG_CONTROL_DESIGN' ));
ENDSEC;

DATA;
#1 = CARTESIAN_POINT ( 'NONE',  ( 3.250000000000000444, 3.980102097228897245E-16, 400.0000000000000000 ) ) ;
#2 = CLOSED_SHELL ( 'NONE', ( #148, #131, #63, #20, #212, #121, #214 ) ) ;
#3 = LINE ( 'NONE', #1, #217 ) ;
#4 = CC_DESIGN_APPROVAL ( #30, ( #126 ) ) ;
#5 = DIRECTION ( 'NONE',  ( 0.000000000000000000, 0.000000000000000000, 1.000000000000000000 ) ) ;
#6 = PERSON_AND_ORGANIZATION ( #197, #133 ) ;
#7 =( LENGTH_UNIT ( ) NAMED_UNIT ( * ) SI_UNIT ( .MILLI., .METRE. ) );
#8 = COORDINATED_UNIVERSAL_TIME_OFFSET ( 1, 0, .AHEAD. ) ;
#9 = ORIENTED_EDGE ( 'NONE', *, *, #99, .T. ) ;
#10 = VERTEX_POINT ( 'NONE', #117 ) ;
#11 = PRODUCT_DEFINITION_FORMATION_WITH_SPECIFIED_SOURCE ( 'LIBOVOLNÝ', '', #127, .NOT_KNOWN. ) ;
#12 = APPROVAL_DATE_TIME ( #194, #30 ) ;
#13 = VERTEX_POINT ( 'NONE', #115 ) ;
#14 = EDGE_LOOP ( 'NONE', ( #152, #36 ) ) ;
#15 = AXIS2_PLACEMENT_3D ( 'NONE', #53, #62, #42 ) ;
#16 = EDGE_CURVE ( 'NONE', #10, #249, #87, .T. ) ;
#17 = LOCAL_TIME ( 15, 52, 35.00000000000000000, #255 ) ;
#18 = DIRECTION ( 'NONE',  ( -0.000000000000000000, -0.000000000000000000, -1.000000000000000000 ) ) ;
#19 = EDGE_CURVE ( 'NONE', #40, #50, #151, .T. ) ;
#20 = ADVANCED_FACE ( 'NONE', ( #183, #201 ), #238, .T. ) ;
#21 = CARTESIAN_POINT ( 'NONE',  ( 0.000000000000000000, 0.000000000000000000, 5.000000000000000000 ) ) ;
#22 = PERSON_AND_ORGANIZATION ( #197, #133 ) ;
#23 = DIRECTION ( 'NONE',  ( 1.000000000000000000, 0.000000000000000000, 0.000000000000000000 ) ) ;
#24 = COORDINATED_UNIVERSAL_TIME_OFFSET ( 1, 0, .AHEAD. ) ;
#25 = FACE_OUTER_BOUND ( 'NONE', #138, .T. ) ;
#26 = CARTESIAN_POINT ( 'NONE',  ( 0.000000000000000000, 0.000000000000000000, 0.000000000000000000 ) ) ;
#27 = PLANE ( 'NONE',  #101 ) ;
#28 = AXIS2_PLACEMENT_3D ( 'NONE', #180, #18, #253 ) ;
#29 = APPLICATION_CONTEXT ( 'configuration controlled 3d designs of mechanical parts and assemblies' ) ;
#30 = APPROVAL ( #160, 'NEURÈENÝ' ) ;
#31 = DIRECTION ( 'NONE',  ( 1.000000000000000000, 0.000000000000000000, -0.000000000000000000 ) ) ;
#32 = AXIS2_PLACEMENT_3D ( 'NONE', #26, #68, #31 ) ;
#33 = DATE_TIME_ROLE ( 'creation_date' ) ;
#34 = EDGE_LOOP ( 'NONE', ( #114, #94, #49, #196 ) ) ;
#35 = APPROVAL_PERSON_ORGANIZATION ( #167, #43, #243 ) ;
#36 = ORIENTED_EDGE ( 'NONE', *, *, #103, .T. ) ;
#37 = ORIENTED_EDGE ( 'NONE', *, *, #64, .F. ) ;
#38 = CIRCLE ( 'NONE', #124, 6.000000000000000888 ) ;
#39 = CC_DESIGN_PERSON_AND_ORGANIZATION_ASSIGNMENT ( #134, #54, ( #126 ) ) ;
#40 = VERTEX_POINT ( 'NONE', #59 ) ;
#41 = DIRECTION ( 'NONE',  ( -0.000000000000000000, -0.000000000000000000, -1.000000000000000000 ) ) ;
#42 = DIRECTION ( 'NONE',  ( 1.000000000000000000, 0.000000000000000000, 0.000000000000000000 ) ) ;
#43 = APPROVAL ( #237, 'NEURÈENÝ' ) ;
#44 =( NAMED_UNIT ( * ) PLANE_ANGLE_UNIT ( ) SI_UNIT ( $, .RADIAN. ) );
#45 = MECHANICAL_CONTEXT ( 'NONE', #29, 'mechanical' ) ;
#46 =( NAMED_UNIT ( * ) SI_UNIT ( $, .STERADIAN. ) SOLID_ANGLE_UNIT ( ) );
#47 = CALENDAR_DATE ( 2023, 13, 2 ) ;
#48 = APPROVAL_PERSON_ORGANIZATION ( #82, #30, #174 ) ;
#49 = ORIENTED_EDGE ( 'NONE', *, *, #211, .T. ) ;
#50 = VERTEX_POINT ( 'NONE', #199 ) ;
#51 = PERSON_AND_ORGANIZATION_ROLE ( 'creator' ) ;
#52 = LOCAL_TIME ( 15, 52, 35.00000000000000000, #24 ) ;
#53 = CARTESIAN_POINT ( 'NONE',  ( 0.000000000000000000, 0.000000000000000000, 5.000000000000000000 ) ) ;
#54 = PERSON_AND_ORGANIZATION_ROLE ( 'creator' ) ;
#55 = FACE_OUTER_BOUND ( 'NONE', #34, .T. ) ;
#56 = DATE_AND_TIME ( #58, #85 ) ;
#57 = DIRECTION ( 'NONE',  ( -0.000000000000000000, -0.000000000000000000, -1.000000000000000000 ) ) ;
#58 = CALENDAR_DATE ( 2023, 13, 2 ) ;
#59 = CARTESIAN_POINT ( 'NONE',  ( -3.250000000000000444, 0.000000000000000000, 5.000000000000000000 ) ) ;
#60 = EDGE_CURVE ( 'NONE', #116, #13, #38, .T. ) ;
#61 = LOCAL_TIME ( 15, 52, 35.00000000000000000, #8 ) ;
#62 = DIRECTION ( 'NONE',  ( 0.000000000000000000, 0.000000000000000000, 1.000000000000000000 ) ) ;
#63 = ADVANCED_FACE ( 'NONE', ( #198 ), #162, .T. ) ;
#64 = EDGE_CURVE ( 'NONE', #13, #249, #221, .T. ) ;
#65 = CARTESIAN_POINT ( 'NONE',  ( 0.000000000000000000, 0.000000000000000000, 0.000000000000000000 ) ) ;
#66 = APPROVAL_PERSON_ORGANIZATION ( #22, #185, #153 ) ;
#67 = DIRECTION ( 'NONE',  ( 1.000000000000000000, 0.000000000000000000, 0.000000000000000000 ) ) ;
#68 = DIRECTION ( 'NONE',  ( 0.000000000000000000, 0.000000000000000000, 1.000000000000000000 ) ) ;
#69 = AXIS2_PLACEMENT_3D ( 'NONE', #163, #142, #141 ) ;
#70 = CARTESIAN_POINT ( 'NONE',  ( 0.000000000000000000, 0.000000000000000000, 400.0000000000000000 ) ) ;
#71 = PERSON_AND_ORGANIZATION ( #197, #133 ) ;
#72 = CC_DESIGN_APPROVAL ( #185, ( #11 ) ) ;
#73 = VERTEX_POINT ( 'NONE', #80 ) ;
#74 = APPLICATION_CONTEXT ( 'configuration controlled 3d designs of mechanical parts and assemblies' ) ;
#75 = APPROVAL_STATUS ( 'not_yet_approved' ) ;
#76 = ORIENTED_EDGE ( 'NONE', *, *, #156, .T. ) ;
#77 = DIRECTION ( 'NONE',  ( 1.000000000000000000, 0.000000000000000000, 0.000000000000000000 ) ) ;
#78 = CC_DESIGN_PERSON_AND_ORGANIZATION_ASSIGNMENT ( #6, #130, ( #127 ) ) ;
#79 = ORIENTED_EDGE ( 'NONE', *, *, #156, .F. ) ;
#80 = CARTESIAN_POINT ( 'NONE',  ( -3.250000000000000444, 0.000000000000000000, 400.0000000000000000 ) ) ;
#81 = DIRECTION ( 'NONE',  ( 1.000000000000000000, 0.000000000000000000, 0.000000000000000000 ) ) ;
#82 = PERSON_AND_ORGANIZATION ( #197, #133 ) ;
#83 = EDGE_CURVE ( 'NONE', #158, #50, #3, .T. ) ;
#84 = CARTESIAN_POINT ( 'NONE',  ( 0.000000000000000000, 0.000000000000000000, 5.000000000000000000 ) ) ;
#85 = LOCAL_TIME ( 15, 52, 35.00000000000000000, #239 ) ;
#86 = CALENDAR_DATE ( 2023, 13, 2 ) ;
#87 = CIRCLE ( 'NONE', #231, 6.000000000000000888 ) ;
#88 = DIRECTION ( 'NONE',  ( 0.000000000000000000, 0.000000000000000000, 1.000000000000000000 ) ) ;
#89 = AXIS2_PLACEMENT_3D ( 'NONE', #189, #203, #132 ) ;
#90 = CC_DESIGN_DATE_AND_TIME_ASSIGNMENT ( #122, #33, ( #126 ) ) ;
#91 = PERSON_AND_ORGANIZATION ( #197, #133 ) ;
#92 = ORIENTED_EDGE ( 'NONE', *, *, #139, .T. ) ;
#93 = CIRCLE ( 'NONE', #179, 3.250000000000000444 ) ;
#94 = ORIENTED_EDGE ( 'NONE', *, *, #64, .T. ) ;
#95 = DIRECTION ( 'NONE',  ( 0.000000000000000000, 0.000000000000000000, 1.000000000000000000 ) ) ;
#96 = ORIENTED_EDGE ( 'NONE', *, *, #19, .T. ) ;
#97 = DIRECTION ( 'NONE',  ( 1.000000000000000000, 0.000000000000000000, 0.000000000000000000 ) ) ;
#98 = COORDINATED_UNIVERSAL_TIME_OFFSET ( 1, 0, .AHEAD. ) ;
#99 = EDGE_CURVE ( 'NONE', #13, #116, #104, .T. ) ;
#100 = CYLINDRICAL_SURFACE ( 'NONE', #241, 6.000000000000000888 ) ;
#101 = AXIS2_PLACEMENT_3D ( 'NONE', #109, #191, #227 ) ;
#102 = DIRECTION ( 'NONE',  ( -0.000000000000000000, -0.000000000000000000, -1.000000000000000000 ) ) ;
#103 = EDGE_CURVE ( 'NONE', #158, #73, #220, .T. ) ;
#104 = CIRCLE ( 'NONE', #128, 6.000000000000000888 ) ;
#105 = PLANE ( 'NONE',  #32 ) ;
#106 = DIRECTION ( 'NONE',  ( -0.000000000000000000, -0.000000000000000000, -1.000000000000000000 ) ) ;
#107 = CARTESIAN_POINT ( 'NONE',  ( 0.000000000000000000, 0.000000000000000000, 400.0000000000000000 ) ) ;
#108 = AXIS2_PLACEMENT_3D ( 'NONE', #181, #202, #81 ) ;
#109 = CARTESIAN_POINT ( 'NONE',  ( 0.000000000000000000, 0.000000000000000000, 400.0000000000000000 ) ) ;
#110 = DESIGN_CONTEXT ( 'detailed design', #74, 'design' ) ;
#111 = LINE ( 'NONE', #147, #187 ) ;
#112 = PERSON_AND_ORGANIZATION ( #197, #133 ) ;
#113 = ADVANCED_BREP_SHAPE_REPRESENTATION ( '4098', ( #246, #125 ), #129 ) ;
#114 = ORIENTED_EDGE ( 'NONE', *, *, #99, .F. ) ;
#115 = CARTESIAN_POINT ( 'NONE',  ( 6.000000000000000888, 7.347880794884120722E-16, 5.000000000000000000 ) ) ;
#116 = VERTEX_POINT ( 'NONE', #119 ) ;
#117 = CARTESIAN_POINT ( 'NONE',  ( -6.000000000000000888, 0.000000000000000000, 0.000000000000000000 ) ) ;
#118 = CC_DESIGN_APPROVAL ( #43, ( #169 ) ) ;
#119 = CARTESIAN_POINT ( 'NONE',  ( -6.000000000000000888, 0.000000000000000000, 5.000000000000000000 ) ) ;
#120 = CARTESIAN_POINT ( 'NONE',  ( 0.000000000000000000, 0.000000000000000000, 5.000000000000000000 ) ) ;
#121 = ADVANCED_FACE ( 'NONE', ( #25 ), #236, .T. ) ;
#122 = DATE_AND_TIME ( #200, #61 ) ;
#123 = DIRECTION ( 'NONE',  ( -1.000000000000000000, 0.000000000000000000, 0.000000000000000000 ) ) ;
#124 = AXIS2_PLACEMENT_3D ( 'NONE', #120, #254, #23 ) ;
#125 = AXIS2_PLACEMENT_3D ( 'NONE', #65, #170, #225 ) ;
#126 = PRODUCT_DEFINITION ( 'NEZNÁMÝ', '', #11, #110 ) ;
#127 = PRODUCT ( '4098', '4098', '', ( #45 ) ) ;
#128 = AXIS2_PLACEMENT_3D ( 'NONE', #84, #159, #97 ) ;
#129 =( GEOMETRIC_REPRESENTATION_CONTEXT ( 3 ) GLOBAL_UNCERTAINTY_ASSIGNED_CONTEXT ( ( #176 ) ) GLOBAL_UNIT_ASSIGNED_CONTEXT ( ( #7, #44, #46 ) ) REPRESENTATION_CONTEXT ( 'NONE', 'WORKASPACE' ) );
#130 = PERSON_AND_ORGANIZATION_ROLE ( 'design_owner' ) ;
#131 = ADVANCED_FACE ( 'NONE', ( #55 ), #100, .T. ) ;
#132 = DIRECTION ( 'NONE',  ( 1.000000000000000000, 0.000000000000000000, 0.000000000000000000 ) ) ;
#133 = ORGANIZATION ( 'NEURÈENÝ', 'NEURÈENÝ', '' ) ;
#134 = PERSON_AND_ORGANIZATION ( #197, #133 ) ;
#135 = EDGE_LOOP ( 'NONE', ( #251, #79 ) ) ;
#136 = ORIENTED_EDGE ( 'NONE', *, *, #16, .T. ) ;
#137 = CC_DESIGN_PERSON_AND_ORGANIZATION_ASSIGNMENT ( #71, #204, ( #169 ) ) ;
#138 = EDGE_LOOP ( 'NONE', ( #192, #216, #92, #96 ) ) ;
#139 = EDGE_CURVE ( 'NONE', #73, #40, #182, .T. ) ;
#140 = CIRCLE ( 'NONE', #226, 6.000000000000000888 ) ;
#141 = DIRECTION ( 'NONE',  ( 1.000000000000000000, 0.000000000000000000, -0.000000000000000000 ) ) ;
#142 = DIRECTION ( 'NONE',  ( 0.000000000000000000, 0.000000000000000000, 1.000000000000000000 ) ) ;
#143 = SHAPE_DEFINITION_REPRESENTATION ( #146, #113 ) ;
#144 = DIRECTION ( 'NONE',  ( -1.000000000000000000, 0.000000000000000000, 0.000000000000000000 ) ) ;
#145 = AXIS2_PLACEMENT_3D ( 'NONE', #107, #207, #171 ) ;
#146 = PRODUCT_DEFINITION_SHAPE ( 'NONE', 'NONE',  #126 ) ;
#147 = CARTESIAN_POINT ( 'NONE',  ( -6.000000000000000888, 0.000000000000000000, 5.000000000000000000 ) ) ;
#148 = ADVANCED_FACE ( 'NONE', ( #149 ), #242, .T. ) ;
#149 = FACE_OUTER_BOUND ( 'NONE', #154, .T. ) ;
#150 = CARTESIAN_POINT ( 'NONE',  ( 6.000000000000000888, 7.347880794884120722E-16, 0.000000000000000000 ) ) ;
#151 = CIRCLE ( 'NONE', #15, 3.250000000000000444 ) ;
#152 = ORIENTED_EDGE ( 'NONE', *, *, #244, .T. ) ;
#153 = APPROVAL_ROLE ( '' ) ;
#154 = EDGE_LOOP ( 'NONE', ( #157, #233, #76, #177 ) ) ;
#155 = CALENDAR_DATE ( 2023, 13, 2 ) ;
#156 = EDGE_CURVE ( 'NONE', #50, #40, #215, .T. ) ;
#157 = ORIENTED_EDGE ( 'NONE', *, *, #103, .F. ) ;
#158 = VERTEX_POINT ( 'NONE', #209 ) ;
#159 = DIRECTION ( 'NONE',  ( 0.000000000000000000, 0.000000000000000000, 1.000000000000000000 ) ) ;
#160 = APPROVAL_STATUS ( 'not_yet_approved' ) ;
#161 = CC_DESIGN_SECURITY_CLASSIFICATION ( #169, ( #11 ) ) ;
#162 = CYLINDRICAL_SURFACE ( 'NONE', #208, 6.000000000000000888 ) ;
#163 = CARTESIAN_POINT ( 'NONE',  ( 0.000000000000000000, 0.000000000000000000, 5.000000000000000000 ) ) ;
#164 = DATE_TIME_ROLE ( 'classification_date' ) ;
#165 = DATE_AND_TIME ( #86, #52 ) ;
#166 = DIRECTION ( 'NONE',  ( 1.000000000000000000, 0.000000000000000000, 0.000000000000000000 ) ) ;
#167 = PERSON_AND_ORGANIZATION ( #197, #133 ) ;
#168 = CARTESIAN_POINT ( 'NONE',  ( -3.250000000000000444, 0.000000000000000000, 400.0000000000000000 ) ) ;
#169 = SECURITY_CLASSIFICATION ( '', '', #248 ) ;
#170 = DIRECTION ( 'NONE',  ( 0.000000000000000000, 0.000000000000000000, 1.000000000000000000 ) ) ;
#171 = DIRECTION ( 'NONE',  ( -1.000000000000000000, 0.000000000000000000, 0.000000000000000000 ) ) ;
#172 = PERSON_AND_ORGANIZATION_ROLE ( 'design_supplier' ) ;
#173 = ORIENTED_EDGE ( 'NONE', *, *, #211, .F. ) ;
#174 = APPROVAL_ROLE ( '' ) ;
#175 = ORIENTED_EDGE ( 'NONE', *, *, #229, .T. ) ;
#176 = UNCERTAINTY_MEASURE_WITH_UNIT (LENGTH_MEASURE( 1.000000000000000082E-05 ), #7, 'distance_accuracy_value', 'NONE');
#177 = ORIENTED_EDGE ( 'NONE', *, *, #139, .F. ) ;
#178 = VECTOR ( 'NONE', #106, 1000.000000000000000 ) ;
#179 = AXIS2_PLACEMENT_3D ( 'NONE', #70, #5, #166 ) ;
#180 = CARTESIAN_POINT ( 'NONE',  ( 0.000000000000000000, 0.000000000000000000, 400.0000000000000000 ) ) ;
#181 = CARTESIAN_POINT ( 'NONE',  ( 0.000000000000000000, 0.000000000000000000, 400.0000000000000000 ) ) ;
#182 = LINE ( 'NONE', #168, #178 ) ;
#183 = FACE_BOUND ( 'NONE', #135, .T. ) ;
#184 = APPROVAL_DATE_TIME ( #56, #43 ) ;
#185 = APPROVAL ( #75, 'NEURÈENÝ' ) ;
#186 = DIRECTION ( 'NONE',  ( -0.000000000000000000, -0.000000000000000000, -1.000000000000000000 ) ) ;
#187 = VECTOR ( 'NONE', #186, 1000.000000000000000 ) ;
#188 = CARTESIAN_POINT ( 'NONE',  ( 0.000000000000000000, 0.000000000000000000, 0.000000000000000000 ) ) ;
#189 = CARTESIAN_POINT ( 'NONE',  ( 0.000000000000000000, 0.000000000000000000, 5.000000000000000000 ) ) ;
#190 = CC_DESIGN_PERSON_AND_ORGANIZATION_ASSIGNMENT ( #112, #51, ( #11 ) ) ;
#191 = DIRECTION ( 'NONE',  ( 0.000000000000000000, 0.000000000000000000, 1.000000000000000000 ) ) ;
#192 = ORIENTED_EDGE ( 'NONE', *, *, #83, .F. ) ;
#193 = ORIENTED_EDGE ( 'NONE', *, *, #60, .F. ) ;
#194 = DATE_AND_TIME ( #47, #17 ) ;
#195 = CARTESIAN_POINT ( 'NONE',  ( 0.000000000000000000, 0.000000000000000000, 0.000000000000000000 ) ) ;
#196 = ORIENTED_EDGE ( 'NONE', *, *, #229, .F. ) ;
#197 = PERSON ( 'NEURÈENÝ', 'NEURÈENÝ', 'NEURÈENÝ', ('NEURÈENÝ'), ('NEURÈENÝ'), ('NEURÈENÝ') ) ;
#198 = FACE_OUTER_BOUND ( 'NONE', #252, .T. ) ;
#199 = CARTESIAN_POINT ( 'NONE',  ( 3.250000000000000444, 3.980102097228897245E-16, 5.000000000000000000 ) ) ;
#200 = CALENDAR_DATE ( 2023, 13, 2 ) ;
#201 = FACE_OUTER_BOUND ( 'NONE', #230, .T. ) ;
#202 = DIRECTION ( 'NONE',  ( 0.000000000000000000, 0.000000000000000000, 1.000000000000000000 ) ) ;
#203 = DIRECTION ( 'NONE',  ( 0.000000000000000000, 0.000000000000000000, 1.000000000000000000 ) ) ;
#204 = PERSON_AND_ORGANIZATION_ROLE ( 'classification_officer' ) ;
#205 = APPLICATION_PROTOCOL_DEFINITION ( 'international standard', 'config_control_design', 1994, #74 ) ;
#206 = CC_DESIGN_DATE_AND_TIME_ASSIGNMENT ( #165, #164, ( #169 ) ) ;
#207 = DIRECTION ( 'NONE',  ( -0.000000000000000000, -0.000000000000000000, -1.000000000000000000 ) ) ;
#208 = AXIS2_PLACEMENT_3D ( 'NONE', #21, #57, #144 ) ;
#209 = CARTESIAN_POINT ( 'NONE',  ( 3.250000000000000444, 3.980102097228897245E-16, 400.0000000000000000 ) ) ;
#210 = APPROVAL_DATE_TIME ( #232, #185 ) ;
#211 = EDGE_CURVE ( 'NONE', #249, #10, #140, .T. ) ;
#212 = ADVANCED_FACE ( 'NONE', ( #224 ), #105, .F. ) ;
#213 = ORIENTED_EDGE ( 'NONE', *, *, #60, .T. ) ;
#214 = ADVANCED_FACE ( 'NONE', ( #228 ), #27, .T. ) ;
#215 = CIRCLE ( 'NONE', #89, 3.250000000000000444 ) ;
#216 = ORIENTED_EDGE ( 'NONE', *, *, #244, .F. ) ;
#217 = VECTOR ( 'NONE', #102, 1000.000000000000000 ) ;
#218 = EDGE_LOOP ( 'NONE', ( #234, #173 ) ) ;
#219 = CARTESIAN_POINT ( 'NONE',  ( 0.000000000000000000, 0.000000000000000000, 5.000000000000000000 ) ) ;
#220 = CIRCLE ( 'NONE', #108, 3.250000000000000444 ) ;
#221 = LINE ( 'NONE', #223, #235 ) ;
#222 = DIRECTION ( 'NONE',  ( -0.000000000000000000, -0.000000000000000000, -1.000000000000000000 ) ) ;
#223 = CARTESIAN_POINT ( 'NONE',  ( 6.000000000000000888, 7.347880794884120722E-16, 5.000000000000000000 ) ) ;
#224 = FACE_OUTER_BOUND ( 'NONE', #218, .T. ) ;
#225 = DIRECTION ( 'NONE',  ( 1.000000000000000000, 0.000000000000000000, 0.000000000000000000 ) ) ;
#226 = AXIS2_PLACEMENT_3D ( 'NONE', #188, #88, #67 ) ;
#227 = DIRECTION ( 'NONE',  ( 1.000000000000000000, 0.000000000000000000, -0.000000000000000000 ) ) ;
#228 = FACE_OUTER_BOUND ( 'NONE', #14, .T. ) ;
#229 = EDGE_CURVE ( 'NONE', #116, #10, #111, .T. ) ;
#230 = EDGE_LOOP ( 'NONE', ( #213, #9 ) ) ;
#231 = AXIS2_PLACEMENT_3D ( 'NONE', #195, #95, #77 ) ;
#232 = DATE_AND_TIME ( #155, #245 ) ;
#233 = ORIENTED_EDGE ( 'NONE', *, *, #83, .T. ) ;
#234 = ORIENTED_EDGE ( 'NONE', *, *, #16, .F. ) ;
#235 = VECTOR ( 'NONE', #222, 1000.000000000000000 ) ;
#236 = CYLINDRICAL_SURFACE ( 'NONE', #28, 3.250000000000000444 ) ;
#237 = APPROVAL_STATUS ( 'not_yet_approved' ) ;
#238 = PLANE ( 'NONE',  #69 ) ;
#239 = COORDINATED_UNIVERSAL_TIME_OFFSET ( 1, 0, .AHEAD. ) ;
#240 = PRODUCT_RELATED_PRODUCT_CATEGORY ( 'detail', '', ( #127 ) ) ;
#241 = AXIS2_PLACEMENT_3D ( 'NONE', #219, #41, #123 ) ;
#242 = CYLINDRICAL_SURFACE ( 'NONE', #145, 3.250000000000000444 ) ;
#243 = APPROVAL_ROLE ( '' ) ;
#244 = EDGE_CURVE ( 'NONE', #73, #158, #93, .T. ) ;
#245 = LOCAL_TIME ( 15, 52, 35.00000000000000000, #98 ) ;
#246 = MANIFOLD_SOLID_BREP ( 'Pøidat vysunutím3', #2 ) ;
#247 = APPLICATION_PROTOCOL_DEFINITION ( 'international standard', 'config_control_design', 1994, #29 ) ;
#248 = SECURITY_CLASSIFICATION_LEVEL ( 'unclassified' ) ;
#249 = VERTEX_POINT ( 'NONE', #150 ) ;
#250 = CC_DESIGN_PERSON_AND_ORGANIZATION_ASSIGNMENT ( #91, #172, ( #11 ) ) ;
#251 = ORIENTED_EDGE ( 'NONE', *, *, #19, .F. ) ;
#252 = EDGE_LOOP ( 'NONE', ( #37, #193, #175, #136 ) ) ;
#253 = DIRECTION ( 'NONE',  ( -1.000000000000000000, 0.000000000000000000, 0.000000000000000000 ) ) ;
#254 = DIRECTION ( 'NONE',  ( 0.000000000000000000, 0.000000000000000000, 1.000000000000000000 ) ) ;
#255 = COORDINATED_UNIVERSAL_TIME_OFFSET ( 1, 0, .AHEAD. ) ;
ENDSEC;
END-ISO-10303-21;
