ISO-10303-21;
HEADER;
FILE_DESCRIPTION (( 'STEP AP203' ),
    '1' );
FILE_NAME ('a067.STEP',
    '2022-07-07T17:52:59',
    ( '' ),
    ( '' ),
    'SwSTEP 2.0',
    'SolidWorks 2019',
    '' );
FILE_SCHEMA (( 'CONFIG_CONTROL_DESIGN' ));
ENDSEC;

DATA;
#1 = VECTOR ( 'NONE', #135, 1000.000000000000000 ) ;
#2 = APPLICATION_CONTEXT ( 'configuration controlled 3d designs of mechanical parts and assemblies' ) ;
#3 = ORIENTED_EDGE ( 'NONE', *, *, #178, .F. ) ;
#4 = LOCAL_TIME ( 19, 52, 59.00000000000000000, #196 ) ;
#5 = VERTEX_POINT ( 'NONE', #26 ) ;
#6 = EDGE_LOOP ( 'NONE', ( #239, #104 ) ) ;
#7 = ADVANCED_FACE ( 'NONE', ( #94 ), #146, .T. ) ;
#8 = DIRECTION ( 'NONE',  ( 0.000000000000000000, 0.000000000000000000, 1.000000000000000000 ) ) ;
#9 = CYLINDRICAL_SURFACE ( 'NONE', #43, 1.750000000000000000 ) ;
#10 = DIRECTION ( 'NONE',  ( 1.000000000000000000, 0.000000000000000000, -0.000000000000000000 ) ) ;
#11 = DIRECTION ( 'NONE',  ( -0.000000000000000000, -0.000000000000000000, -1.000000000000000000 ) ) ;
#12 = CYLINDRICAL_SURFACE ( 'NONE', #175, 3.500000000000000000 ) ;
#13 = CIRCLE ( 'NONE', #45, 3.500000000000000000 ) ;
#14 = CARTESIAN_POINT ( 'NONE',  ( 0.000000000000000000, 0.000000000000000000, 0.000000000000000000 ) ) ;
#15 = CARTESIAN_POINT ( 'NONE',  ( 0.000000000000000000, 0.000000000000000000, 503.0000000000000000 ) ) ;
#16 = PERSON_AND_ORGANIZATION ( #67, #176 ) ;
#17 = DIRECTION ( 'NONE',  ( 0.000000000000000000, 0.000000000000000000, 1.000000000000000000 ) ) ;
#18 = AXIS2_PLACEMENT_3D ( 'NONE', #15, #252, #80 ) ;
#19 = PRODUCT_RELATED_PRODUCT_CATEGORY ( 'detail', '', ( #88 ) ) ;
#20 = VECTOR ( 'NONE', #82, 1000.000000000000000 ) ;
#21 = AXIS2_PLACEMENT_3D ( 'NONE', #164, #203, #115 ) ;
#22 = ORIENTED_EDGE ( 'NONE', *, *, #106, .T. ) ;
#23 = CC_DESIGN_SECURITY_CLASSIFICATION ( #219, ( #63 ) ) ;
#24 = CC_DESIGN_DATE_AND_TIME_ASSIGNMENT ( #226, #197, ( #92 ) ) ;
#25 = APPLICATION_CONTEXT ( 'configuration controlled 3d designs of mechanical parts and assemblies' ) ;
#26 = CARTESIAN_POINT ( 'NONE',  ( -1.750000000000000000, 0.000000000000000000, 3.000000000000000000 ) ) ;
#27 = DIRECTION ( 'NONE',  ( 1.000000000000000000, 0.000000000000000000, -0.000000000000000000 ) ) ;
#28 = CC_DESIGN_DATE_AND_TIME_ASSIGNMENT ( #254, #83, ( #219 ) ) ;
#29 = DIRECTION ( 'NONE',  ( 1.000000000000000000, 0.000000000000000000, 0.000000000000000000 ) ) ;
#30 = DIRECTION ( 'NONE',  ( 0.000000000000000000, 0.000000000000000000, 1.000000000000000000 ) ) ;
#31 = CARTESIAN_POINT ( 'NONE',  ( 0.000000000000000000, 0.000000000000000000, 3.000000000000000000 ) ) ;
#32 = CALENDAR_DATE ( 2022, 7, 7 ) ;
#33 = LINE ( 'NONE', #97, #126 ) ;
#34 = DIRECTION ( 'NONE',  ( -1.000000000000000000, 0.000000000000000000, 0.000000000000000000 ) ) ;
#35 = CIRCLE ( 'NONE', #121, 1.750000000000000000 ) ;
#36 = PERSON_AND_ORGANIZATION ( #67, #176 ) ;
#37 = CARTESIAN_POINT ( 'NONE',  ( -3.500000000000000000, 0.000000000000000000, 3.000000000000000000 ) ) ;
#38 = SHAPE_DEFINITION_REPRESENTATION ( #183, #198 ) ;
#39 = AXIS2_PLACEMENT_3D ( 'NONE', #14, #17, #168 ) ;
#40 = PERSON_AND_ORGANIZATION ( #67, #176 ) ;
#41 = CIRCLE ( 'NONE', #74, 3.500000000000000000 ) ;
#42 = LOCAL_TIME ( 19, 52, 59.00000000000000000, #253 ) ;
#43 = AXIS2_PLACEMENT_3D ( 'NONE', #113, #211, #188 ) ;
#44 = LOCAL_TIME ( 19, 52, 59.00000000000000000, #55 ) ;
#45 = AXIS2_PLACEMENT_3D ( 'NONE', #72, #8, #221 ) ;
#46 = EDGE_CURVE ( 'NONE', #154, #65, #41, .T. ) ;
#47 = ORIENTED_EDGE ( 'NONE', *, *, #120, .T. ) ;
#48 = AXIS2_PLACEMENT_3D ( 'NONE', #231, #246, #110 ) ;
#49 = EDGE_LOOP ( 'NONE', ( #243, #157, #159, #125 ) ) ;
#50 = UNCERTAINTY_MEASURE_WITH_UNIT (LENGTH_MEASURE( 1.000000000000000082E-05 ), #61, 'distance_accuracy_value', 'NONE');
#51 = FACE_OUTER_BOUND ( 'NONE', #49, .T. ) ;
#52 = DIRECTION ( 'NONE',  ( 0.000000000000000000, 0.000000000000000000, 1.000000000000000000 ) ) ;
#53 = MECHANICAL_CONTEXT ( 'NONE', #2, 'mechanical' ) ;
#54 = DIRECTION ( 'NONE',  ( -0.000000000000000000, -0.000000000000000000, -1.000000000000000000 ) ) ;
#55 = COORDINATED_UNIVERSAL_TIME_OFFSET ( 1, 0, .AHEAD. ) ;
#56 =( NAMED_UNIT ( * ) SI_UNIT ( $, .STERADIAN. ) SOLID_ANGLE_UNIT ( ) );
#57 = DIRECTION ( 'NONE',  ( 0.000000000000000000, 0.000000000000000000, 1.000000000000000000 ) ) ;
#58 = PERSON_AND_ORGANIZATION_ROLE ( 'design_supplier' ) ;
#59 = APPLICATION_PROTOCOL_DEFINITION ( 'international standard', 'config_control_design', 1994, #25 ) ;
#60 = APPROVAL_DATE_TIME ( #138, #242 ) ;
#61 =( LENGTH_UNIT ( ) NAMED_UNIT ( * ) SI_UNIT ( .MILLI., .METRE. ) );
#62 = ADVANCED_FACE ( 'NONE', ( #144, #223 ), #107, .T. ) ;
#63 = PRODUCT_DEFINITION_FORMATION_WITH_SPECIFIED_SOURCE ( 'LIBOVOLNÝ', '', #88, .NOT_KNOWN. ) ;
#64 = ORIENTED_EDGE ( 'NONE', *, *, #106, .F. ) ;
#65 = VERTEX_POINT ( 'NONE', #128 ) ;
#66 = CC_DESIGN_PERSON_AND_ORGANIZATION_ASSIGNMENT ( #118, #136, ( #219 ) ) ;
#67 = PERSON ( 'NEURÈENÝ', 'NEURÈENÝ', 'NEURÈENÝ', ('NEURÈENÝ'), ('NEURÈENÝ'), ('NEURÈENÝ') ) ;
#68 = VERTEX_POINT ( 'NONE', #133 ) ;
#69 = MANIFOLD_SOLID_BREP ( 'Pøidat vysunutím3', #224 ) ;
#70 = LOCAL_TIME ( 19, 52, 59.00000000000000000, #93 ) ;
#71 = ORIENTED_EDGE ( 'NONE', *, *, #102, .F. ) ;
#72 = CARTESIAN_POINT ( 'NONE',  ( 0.000000000000000000, 0.000000000000000000, 0.000000000000000000 ) ) ;
#73 = CC_DESIGN_PERSON_AND_ORGANIZATION_ASSIGNMENT ( #209, #81, ( #63 ) ) ;
#74 = AXIS2_PLACEMENT_3D ( 'NONE', #98, #225, #130 ) ;
#75 = DIRECTION ( 'NONE',  ( 1.000000000000000000, 0.000000000000000000, 0.000000000000000000 ) ) ;
#76 = APPROVAL_PERSON_ORGANIZATION ( #255, #242, #172 ) ;
#77 = CARTESIAN_POINT ( 'NONE',  ( -3.500000000000000000, 0.000000000000000000, 3.000000000000000000 ) ) ;
#78 = PERSON_AND_ORGANIZATION_ROLE ( 'design_owner' ) ;
#79 = ADVANCED_FACE ( 'NONE', ( #192 ), #245, .T. ) ;
#80 = DIRECTION ( 'NONE',  ( 1.000000000000000000, 0.000000000000000000, 0.000000000000000000 ) ) ;
#81 = PERSON_AND_ORGANIZATION_ROLE ( 'creator' ) ;
#82 = DIRECTION ( 'NONE',  ( -0.000000000000000000, -0.000000000000000000, -1.000000000000000000 ) ) ;
#83 = DATE_TIME_ROLE ( 'classification_date' ) ;
#84 = CC_DESIGN_APPROVAL ( #248, ( #92 ) ) ;
#85 = APPROVAL_PERSON_ORGANIZATION ( #40, #122, #233 ) ;
#86 = EDGE_CURVE ( 'NONE', #124, #68, #247, .T. ) ;
#87 = VERTEX_POINT ( 'NONE', #170 ) ;
#88 = PRODUCT ( 'a067', 'a067', '', ( #53 ) ) ;
#89 = DIRECTION ( 'NONE',  ( 0.000000000000000000, 0.000000000000000000, 1.000000000000000000 ) ) ;
#90 = EDGE_LOOP ( 'NONE', ( #182, #142, #201, #199 ) ) ;
#91 = DIRECTION ( 'NONE',  ( 0.000000000000000000, 0.000000000000000000, 1.000000000000000000 ) ) ;
#92 = PRODUCT_DEFINITION ( 'NEZNÁMÝ', '', #63, #191 ) ;
#93 = COORDINATED_UNIVERSAL_TIME_OFFSET ( 1, 0, .AHEAD. ) ;
#94 = FACE_OUTER_BOUND ( 'NONE', #202, .T. ) ;
#95 = CARTESIAN_POINT ( 'NONE',  ( 3.500000000000000000, 4.286263797015736595E-16, 0.000000000000000000 ) ) ;
#96 = CARTESIAN_POINT ( 'NONE',  ( 0.000000000000000000, 0.000000000000000000, 3.000000000000000000 ) ) ;
#97 = CARTESIAN_POINT ( 'NONE',  ( 1.750000000000000000, 2.143131898507868297E-16, 503.0000000000000000 ) ) ;
#98 = CARTESIAN_POINT ( 'NONE',  ( 0.000000000000000000, 0.000000000000000000, 3.000000000000000000 ) ) ;
#99 = APPROVAL_STATUS ( 'not_yet_approved' ) ;
#100 = PERSON_AND_ORGANIZATION ( #67, #176 ) ;
#101 = DATE_AND_TIME ( #32, #70 ) ;
#102 = EDGE_CURVE ( 'NONE', #65, #154, #235, .T. ) ;
#103 = CC_DESIGN_PERSON_AND_ORGANIZATION_ASSIGNMENT ( #36, #112, ( #92 ) ) ;
#104 = ORIENTED_EDGE ( 'NONE', *, *, #102, .T. ) ;
#105 = EDGE_LOOP ( 'NONE', ( #71, #47, #22, #141 ) ) ;
#106 = EDGE_CURVE ( 'NONE', #218, #87, #13, .T. ) ;
#107 = PLANE ( 'NONE',  #213 ) ;
#108 = CIRCLE ( 'NONE', #48, 3.500000000000000000 ) ;
#109 = CARTESIAN_POINT ( 'NONE',  ( 3.500000000000000000, 4.286263797015736595E-16, 3.000000000000000000 ) ) ;
#110 = DIRECTION ( 'NONE',  ( 1.000000000000000000, 0.000000000000000000, 0.000000000000000000 ) ) ;
#111 = DIRECTION ( 'NONE',  ( -1.000000000000000000, 0.000000000000000000, 0.000000000000000000 ) ) ;
#112 = PERSON_AND_ORGANIZATION_ROLE ( 'creator' ) ;
#113 = CARTESIAN_POINT ( 'NONE',  ( 0.000000000000000000, 0.000000000000000000, 503.0000000000000000 ) ) ;
#114 = ADVANCED_FACE ( 'NONE', ( #162 ), #186, .T. ) ;
#115 = DIRECTION ( 'NONE',  ( 1.000000000000000000, 0.000000000000000000, -0.000000000000000000 ) ) ;
#116 = SECURITY_CLASSIFICATION_LEVEL ( 'unclassified' ) ;
#117 = FACE_OUTER_BOUND ( 'NONE', #127, .T. ) ;
#118 = PERSON_AND_ORGANIZATION ( #67, #176 ) ;
#119 = APPROVAL_DATE_TIME ( #140, #122 ) ;
#120 = EDGE_CURVE ( 'NONE', #65, #218, #189, .T. ) ;
#121 = AXIS2_PLACEMENT_3D ( 'NONE', #149, #57, #229 ) ;
#122 = APPROVAL ( #99, 'NEURÈENÝ' ) ;
#123 = AXIS2_PLACEMENT_3D ( 'NONE', #184, #89, #75 ) ;
#124 = VERTEX_POINT ( 'NONE', #244 ) ;
#125 = ORIENTED_EDGE ( 'NONE', *, *, #195, .T. ) ;
#126 = VECTOR ( 'NONE', #11, 1000.000000000000000 ) ;
#127 = EDGE_LOOP ( 'NONE', ( #214, #64 ) ) ;
#128 = CARTESIAN_POINT ( 'NONE',  ( 3.500000000000000000, 4.286263797015736595E-16, 3.000000000000000000 ) ) ;
#129 = APPROVAL_STATUS ( 'not_yet_approved' ) ;
#130 = DIRECTION ( 'NONE',  ( 1.000000000000000000, 0.000000000000000000, 0.000000000000000000 ) ) ;
#131 = CARTESIAN_POINT ( 'NONE',  ( 0.000000000000000000, 0.000000000000000000, 0.000000000000000000 ) ) ;
#132 = ADVANCED_FACE ( 'NONE', ( #51 ), #12, .T. ) ;
#133 = CARTESIAN_POINT ( 'NONE',  ( -1.750000000000000000, 0.000000000000000000, 503.0000000000000000 ) ) ;
#134 = CALENDAR_DATE ( 2022, 7, 7 ) ;
#135 = DIRECTION ( 'NONE',  ( -0.000000000000000000, -0.000000000000000000, -1.000000000000000000 ) ) ;
#136 = PERSON_AND_ORGANIZATION_ROLE ( 'classification_officer' ) ;
#137 = PERSON_AND_ORGANIZATION ( #67, #176 ) ;
#138 = DATE_AND_TIME ( #134, #42 ) ;
#139 = CC_DESIGN_PERSON_AND_ORGANIZATION_ASSIGNMENT ( #100, #78, ( #88 ) ) ;
#140 = DATE_AND_TIME ( #190, #4 ) ;
#141 = ORIENTED_EDGE ( 'NONE', *, *, #205, .F. ) ;
#142 = ORIENTED_EDGE ( 'NONE', *, *, #158, .F. ) ;
#143 = EDGE_LOOP ( 'NONE', ( #237, #220, #180, #156 ) ) ;
#144 = FACE_BOUND ( 'NONE', #216, .T. ) ;
#145 = ORIENTED_EDGE ( 'NONE', *, *, #155, .F. ) ;
#146 = PLANE ( 'NONE',  #21 ) ;
#147 = CARTESIAN_POINT ( 'NONE',  ( 0.000000000000000000, 0.000000000000000000, 3.000000000000000000 ) ) ;
#148 = DIRECTION ( 'NONE',  ( 1.000000000000000000, 0.000000000000000000, 0.000000000000000000 ) ) ;
#149 = CARTESIAN_POINT ( 'NONE',  ( 0.000000000000000000, 0.000000000000000000, 3.000000000000000000 ) ) ;
#150 = FACE_OUTER_BOUND ( 'NONE', #90, .T. ) ;
#151 = CIRCLE ( 'NONE', #240, 1.750000000000000000 ) ;
#152 = CALENDAR_DATE ( 2022, 7, 7 ) ;
#153 = CIRCLE ( 'NONE', #18, 1.750000000000000000 ) ;
#154 = VERTEX_POINT ( 'NONE', #77 ) ;
#155 = EDGE_CURVE ( 'NONE', #238, #5, #35, .T. ) ;
#156 = ORIENTED_EDGE ( 'NONE', *, *, #174, .F. ) ;
#157 = ORIENTED_EDGE ( 'NONE', *, *, #46, .F. ) ;
#158 = EDGE_CURVE ( 'NONE', #68, #124, #153, .T. ) ;
#159 = ORIENTED_EDGE ( 'NONE', *, *, #205, .T. ) ;
#160 = LINE ( 'NONE', #241, #20 ) ;
#161 = ORIENTED_EDGE ( 'NONE', *, *, #86, .T. ) ;
#162 = FACE_OUTER_BOUND ( 'NONE', #105, .T. ) ;
#163 = DIRECTION ( 'NONE',  ( -0.000000000000000000, -0.000000000000000000, -1.000000000000000000 ) ) ;
#164 = CARTESIAN_POINT ( 'NONE',  ( 0.000000000000000000, 0.000000000000000000, 503.0000000000000000 ) ) ;
#165 = DIRECTION ( 'NONE',  ( 0.000000000000000000, 0.000000000000000000, 1.000000000000000000 ) ) ;
#166 = DIRECTION ( 'NONE',  ( -0.000000000000000000, -0.000000000000000000, -1.000000000000000000 ) ) ;
#167 = COORDINATED_UNIVERSAL_TIME_OFFSET ( 1, 0, .AHEAD. ) ;
#168 = DIRECTION ( 'NONE',  ( 1.000000000000000000, 0.000000000000000000, 0.000000000000000000 ) ) ;
#169 = APPROVAL_PERSON_ORGANIZATION ( #137, #248, #204 ) ;
#170 = CARTESIAN_POINT ( 'NONE',  ( -3.500000000000000000, 0.000000000000000000, 0.000000000000000000 ) ) ;
#171 = LINE ( 'NONE', #37, #194 ) ;
#172 = APPROVAL_ROLE ( '' ) ;
#173 = CC_DESIGN_APPROVAL ( #122, ( #219 ) ) ;
#174 = EDGE_CURVE ( 'NONE', #68, #5, #160, .T. ) ;
#175 = AXIS2_PLACEMENT_3D ( 'NONE', #96, #166, #249 ) ;
#176 = ORGANIZATION ( 'NEURÈENÝ', 'NEURÈENÝ', '' ) ;
#177 = CC_DESIGN_APPROVAL ( #242, ( #63 ) ) ;
#178 = EDGE_CURVE ( 'NONE', #5, #238, #151, .T. ) ;
#179 = ORIENTED_EDGE ( 'NONE', *, *, #158, .T. ) ;
#180 = ORIENTED_EDGE ( 'NONE', *, *, #155, .T. ) ;
#181 = CC_DESIGN_PERSON_AND_ORGANIZATION_ASSIGNMENT ( #16, #58, ( #63 ) ) ;
#182 = ORIENTED_EDGE ( 'NONE', *, *, #187, .F. ) ;
#183 = PRODUCT_DEFINITION_SHAPE ( 'NONE', 'NONE',  #92 ) ;
#184 = CARTESIAN_POINT ( 'NONE',  ( 0.000000000000000000, 0.000000000000000000, 3.000000000000000000 ) ) ;
#185 = AXIS2_PLACEMENT_3D ( 'NONE', #131, #165, #27 ) ;
#186 = CYLINDRICAL_SURFACE ( 'NONE', #217, 3.500000000000000000 ) ;
#187 = EDGE_CURVE ( 'NONE', #124, #238, #33, .T. ) ;
#188 = DIRECTION ( 'NONE',  ( -1.000000000000000000, 0.000000000000000000, 0.000000000000000000 ) ) ;
#189 = LINE ( 'NONE', #109, #1 ) ;
#190 = CALENDAR_DATE ( 2022, 7, 7 ) ;
#191 = DESIGN_CONTEXT ( 'detailed design', #25, 'design' ) ;
#192 = FACE_OUTER_BOUND ( 'NONE', #143, .T. ) ;
#193 = CALENDAR_DATE ( 2022, 7, 7 ) ;
#194 = VECTOR ( 'NONE', #163, 1000.000000000000000 ) ;
#195 = EDGE_CURVE ( 'NONE', #87, #218, #108, .T. ) ;
#196 = COORDINATED_UNIVERSAL_TIME_OFFSET ( 1, 0, .AHEAD. ) ;
#197 = DATE_TIME_ROLE ( 'creation_date' ) ;
#198 = ADVANCED_BREP_SHAPE_REPRESENTATION ( 'a067', ( #69, #39 ), #228 ) ;
#199 = ORIENTED_EDGE ( 'NONE', *, *, #178, .T. ) ;
#200 = AXIS2_PLACEMENT_3D ( 'NONE', #208, #206, #111 ) ;
#201 = ORIENTED_EDGE ( 'NONE', *, *, #174, .T. ) ;
#202 = EDGE_LOOP ( 'NONE', ( #179, #161 ) ) ;
#203 = DIRECTION ( 'NONE',  ( 0.000000000000000000, 0.000000000000000000, 1.000000000000000000 ) ) ;
#204 = APPROVAL_ROLE ( '' ) ;
#205 = EDGE_CURVE ( 'NONE', #154, #87, #171, .T. ) ;
#206 = DIRECTION ( 'NONE',  ( -0.000000000000000000, -0.000000000000000000, -1.000000000000000000 ) ) ;
#207 = CARTESIAN_POINT ( 'NONE',  ( 0.000000000000000000, 0.000000000000000000, 3.000000000000000000 ) ) ;
#208 = CARTESIAN_POINT ( 'NONE',  ( 0.000000000000000000, 0.000000000000000000, 503.0000000000000000 ) ) ;
#209 = PERSON_AND_ORGANIZATION ( #67, #176 ) ;
#210 = CARTESIAN_POINT ( 'NONE',  ( 0.000000000000000000, 0.000000000000000000, 503.0000000000000000 ) ) ;
#211 = DIRECTION ( 'NONE',  ( -0.000000000000000000, -0.000000000000000000, -1.000000000000000000 ) ) ;
#212 = LOCAL_TIME ( 19, 52, 59.00000000000000000, #167 ) ;
#213 = AXIS2_PLACEMENT_3D ( 'NONE', #31, #52, #10 ) ;
#214 = ORIENTED_EDGE ( 'NONE', *, *, #195, .F. ) ;
#215 = ADVANCED_FACE ( 'NONE', ( #150 ), #9, .T. ) ;
#216 = EDGE_LOOP ( 'NONE', ( #3, #145 ) ) ;
#217 = AXIS2_PLACEMENT_3D ( 'NONE', #147, #54, #34 ) ;
#218 = VERTEX_POINT ( 'NONE', #95 ) ;
#219 = SECURITY_CLASSIFICATION ( '', '', #116 ) ;
#220 = ORIENTED_EDGE ( 'NONE', *, *, #187, .T. ) ;
#221 = DIRECTION ( 'NONE',  ( 1.000000000000000000, 0.000000000000000000, 0.000000000000000000 ) ) ;
#222 =( NAMED_UNIT ( * ) PLANE_ANGLE_UNIT ( ) SI_UNIT ( $, .RADIAN. ) );
#223 = FACE_OUTER_BOUND ( 'NONE', #6, .T. ) ;
#224 = CLOSED_SHELL ( 'NONE', ( #79, #114, #132, #62, #234, #215, #7 ) ) ;
#225 = DIRECTION ( 'NONE',  ( 0.000000000000000000, 0.000000000000000000, 1.000000000000000000 ) ) ;
#226 = DATE_AND_TIME ( #152, #44 ) ;
#227 = CARTESIAN_POINT ( 'NONE',  ( 1.750000000000000000, 2.143131898507868297E-16, 3.000000000000000000 ) ) ;
#228 =( GEOMETRIC_REPRESENTATION_CONTEXT ( 3 ) GLOBAL_UNCERTAINTY_ASSIGNED_CONTEXT ( ( #50 ) ) GLOBAL_UNIT_ASSIGNED_CONTEXT ( ( #61, #222, #56 ) ) REPRESENTATION_CONTEXT ( 'NONE', 'WORKASPACE' ) );
#229 = DIRECTION ( 'NONE',  ( 1.000000000000000000, 0.000000000000000000, 0.000000000000000000 ) ) ;
#230 = APPROVAL_STATUS ( 'not_yet_approved' ) ;
#231 = CARTESIAN_POINT ( 'NONE',  ( 0.000000000000000000, 0.000000000000000000, 0.000000000000000000 ) ) ;
#232 = PLANE ( 'NONE',  #185 ) ;
#233 = APPROVAL_ROLE ( '' ) ;
#234 = ADVANCED_FACE ( 'NONE', ( #117 ), #232, .F. ) ;
#235 = CIRCLE ( 'NONE', #123, 3.500000000000000000 ) ;
#236 = AXIS2_PLACEMENT_3D ( 'NONE', #210, #91, #29 ) ;
#237 = ORIENTED_EDGE ( 'NONE', *, *, #86, .F. ) ;
#238 = VERTEX_POINT ( 'NONE', #227 ) ;
#239 = ORIENTED_EDGE ( 'NONE', *, *, #46, .T. ) ;
#240 = AXIS2_PLACEMENT_3D ( 'NONE', #207, #30, #148 ) ;
#241 = CARTESIAN_POINT ( 'NONE',  ( -1.750000000000000000, 0.000000000000000000, 503.0000000000000000 ) ) ;
#242 = APPROVAL ( #230, 'NEURÈENÝ' ) ;
#243 = ORIENTED_EDGE ( 'NONE', *, *, #120, .F. ) ;
#244 = CARTESIAN_POINT ( 'NONE',  ( 1.750000000000000000, 2.143131898507868297E-16, 503.0000000000000000 ) ) ;
#245 = CYLINDRICAL_SURFACE ( 'NONE', #200, 1.750000000000000000 ) ;
#246 = DIRECTION ( 'NONE',  ( 0.000000000000000000, 0.000000000000000000, 1.000000000000000000 ) ) ;
#247 = CIRCLE ( 'NONE', #236, 1.750000000000000000 ) ;
#248 = APPROVAL ( #129, 'NEURÈENÝ' ) ;
#249 = DIRECTION ( 'NONE',  ( -1.000000000000000000, 0.000000000000000000, 0.000000000000000000 ) ) ;
#250 = APPROVAL_DATE_TIME ( #101, #248 ) ;
#251 = APPLICATION_PROTOCOL_DEFINITION ( 'international standard', 'config_control_design', 1994, #2 ) ;
#252 = DIRECTION ( 'NONE',  ( 0.000000000000000000, 0.000000000000000000, 1.000000000000000000 ) ) ;
#253 = COORDINATED_UNIVERSAL_TIME_OFFSET ( 1, 0, .AHEAD. ) ;
#254 = DATE_AND_TIME ( #193, #212 ) ;
#255 = PERSON_AND_ORGANIZATION ( #67, #176 ) ;
ENDSEC;
END-ISO-10303-21;
