ISO-10303-21;
HEADER;
FILE_DESCRIPTION (( 'STEP AP203' ),
    '1' );
FILE_NAME ('d9a3.STEP',
    '2022-07-07T17:12:25',
    ( '' ),
    ( '' ),
    'SwSTEP 2.0',
    'SolidWorks 2019',
    '' );
FILE_SCHEMA (( 'CONFIG_CONTROL_DESIGN' ));
ENDSEC;

DATA;
#1 = EDGE_CURVE ( 'NONE', #131, #86, #73, .T. ) ;
#2 = CC_DESIGN_PERSON_AND_ORGANIZATION_ASSIGNMENT ( #200, #20, ( #178 ) ) ;
#3 = EDGE_CURVE ( 'NONE', #89, #233, #231, .T. ) ;
#4 =( GEOMETRIC_REPRESENTATION_CONTEXT ( 3 ) GLOBAL_UNCERTAINTY_ASSIGNED_CONTEXT ( ( #82 ) ) GLOBAL_UNIT_ASSIGNED_CONTEXT ( ( #247, #139, #224 ) ) REPRESENTATION_CONTEXT ( 'NONE', 'WORKASPACE' ) );
#5 = APPROVAL_STATUS ( 'not_yet_approved' ) ;
#6 = MECHANICAL_CONTEXT ( 'NONE', #217, 'mechanical' ) ;
#7 = EDGE_CURVE ( 'NONE', #49, #132, #96, .T. ) ;
#8 = FACE_OUTER_BOUND ( 'NONE', #14, .T. ) ;
#9 = APPLICATION_PROTOCOL_DEFINITION ( 'international standard', 'config_control_design', 1994, #164 ) ;
#10 = FACE_OUTER_BOUND ( 'NONE', #254, .T. ) ;
#11 = DIRECTION ( 'NONE',  ( 1.000000000000000000, 0.000000000000000000, 0.000000000000000000 ) ) ;
#12 = CARTESIAN_POINT ( 'NONE',  ( 0.000000000000000000, 0.000000000000000000, 207.0000000000000284 ) ) ;
#13 = CARTESIAN_POINT ( 'NONE',  ( 11.00000000000000000, 1.347111479062088405E-15, 7.000000000000000000 ) ) ;
#14 = EDGE_LOOP ( 'NONE', ( #111, #195, #68, #172 ) ) ;
#15 = ORIENTED_EDGE ( 'NONE', *, *, #7, .F. ) ;
#16 = CC_DESIGN_APPROVAL ( #251, ( #40 ) ) ;
#17 = SECURITY_CLASSIFICATION_LEVEL ( 'unclassified' ) ;
#18 = CALENDAR_DATE ( 2022, 7, 7 ) ;
#19 = DIRECTION ( 'NONE',  ( 1.000000000000000000, 0.000000000000000000, -0.000000000000000000 ) ) ;
#20 = PERSON_AND_ORGANIZATION_ROLE ( 'design_owner' ) ;
#21 = CYLINDRICAL_SURFACE ( 'NONE', #244, 11.00000000000000000 ) ;
#22 = PERSON_AND_ORGANIZATION ( #75, #168 ) ;
#23 = CARTESIAN_POINT ( 'NONE',  ( 7.250000000000000000, 8.878689293818310074E-16, 207.0000000000000284 ) ) ;
#24 = LOCAL_TIME ( 19, 12, 25.00000000000000000, #199 ) ;
#25 = DIRECTION ( 'NONE',  ( 1.000000000000000000, 0.000000000000000000, 0.000000000000000000 ) ) ;
#26 = FACE_OUTER_BOUND ( 'NONE', #32, .T. ) ;
#27 = AXIS2_PLACEMENT_3D ( 'NONE', #134, #190, #170 ) ;
#28 = ORIENTED_EDGE ( 'NONE', *, *, #94, .T. ) ;
#29 = ORIENTED_EDGE ( 'NONE', *, *, #66, .F. ) ;
#30 = ORIENTED_EDGE ( 'NONE', *, *, #133, .F. ) ;
#31 = EDGE_LOOP ( 'NONE', ( #29, #15, #194, #214 ) ) ;
#32 = EDGE_LOOP ( 'NONE', ( #192, #88, #173, #151 ) ) ;
#33 = APPROVAL_PERSON_ORGANIZATION ( #77, #142, #117 ) ;
#34 = COORDINATED_UNIVERSAL_TIME_OFFSET ( 1, 0, .AHEAD. ) ;
#35 = PERSON_AND_ORGANIZATION ( #75, #168 ) ;
#36 = LOCAL_TIME ( 19, 12, 25.00000000000000000, #216 ) ;
#37 = COORDINATED_UNIVERSAL_TIME_OFFSET ( 1, 0, .AHEAD. ) ;
#38 = DATE_AND_TIME ( #218, #36 ) ;
#39 = CARTESIAN_POINT ( 'NONE',  ( -11.00000000000000000, 0.000000000000000000, 7.000000000000000000 ) ) ;
#40 = SECURITY_CLASSIFICATION ( '', '', #17 ) ;
#41 = EDGE_CURVE ( 'NONE', #51, #208, #189, .T. ) ;
#42 = DIRECTION ( 'NONE',  ( 0.000000000000000000, 0.000000000000000000, 1.000000000000000000 ) ) ;
#43 = DATE_AND_TIME ( #143, #215 ) ;
#44 = CYLINDRICAL_SURFACE ( 'NONE', #159, 7.250000000000000000 ) ;
#45 = CYLINDRICAL_SURFACE ( 'NONE', #223, 7.250000000000000000 ) ;
#46 = EDGE_CURVE ( 'NONE', #89, #51, #93, .T. ) ;
#47 = FACE_OUTER_BOUND ( 'NONE', #213, .T. ) ;
#48 = VECTOR ( 'NONE', #125, 1000.000000000000000 ) ;
#49 = VERTEX_POINT ( 'NONE', #85 ) ;
#50 = ORIENTED_EDGE ( 'NONE', *, *, #7, .T. ) ;
#51 = VERTEX_POINT ( 'NONE', #144 ) ;
#52 = CLOSED_SHELL ( 'NONE', ( #110, #105, #135, #181, #113, #157, #74 ) ) ;
#53 = APPROVAL_PERSON_ORGANIZATION ( #22, #222, #162 ) ;
#54 = PERSON_AND_ORGANIZATION ( #75, #168 ) ;
#55 = CIRCLE ( 'NONE', #193, 11.00000000000000000 ) ;
#56 = APPROVAL_DATE_TIME ( #38, #251 ) ;
#57 = VECTOR ( 'NONE', #183, 1000.000000000000000 ) ;
#58 = DIRECTION ( 'NONE',  ( 0.000000000000000000, 0.000000000000000000, 1.000000000000000000 ) ) ;
#59 = DIRECTION ( 'NONE',  ( 0.000000000000000000, 0.000000000000000000, 1.000000000000000000 ) ) ;
#60 = CARTESIAN_POINT ( 'NONE',  ( 7.250000000000000000, 8.878689293818310074E-16, 7.000000000000000000 ) ) ;
#61 = CIRCLE ( 'NONE', #112, 7.250000000000000000 ) ;
#62 = DIRECTION ( 'NONE',  ( -1.000000000000000000, 0.000000000000000000, 0.000000000000000000 ) ) ;
#63 = COORDINATED_UNIVERSAL_TIME_OFFSET ( 1, 0, .AHEAD. ) ;
#64 = CARTESIAN_POINT ( 'NONE',  ( 0.000000000000000000, 0.000000000000000000, 207.0000000000000284 ) ) ;
#65 = DIRECTION ( 'NONE',  ( -1.000000000000000000, 0.000000000000000000, 0.000000000000000000 ) ) ;
#66 = EDGE_CURVE ( 'NONE', #132, #131, #126, .T. ) ;
#67 = CARTESIAN_POINT ( 'NONE',  ( -7.250000000000000000, 0.000000000000000000, 207.0000000000000284 ) ) ;
#68 = ORIENTED_EDGE ( 'NONE', *, *, #191, .T. ) ;
#69 = DIRECTION ( 'NONE',  ( 1.000000000000000000, 0.000000000000000000, 0.000000000000000000 ) ) ;
#70 = EDGE_LOOP ( 'NONE', ( #30, #232 ) ) ;
#71 = CIRCLE ( 'NONE', #150, 7.250000000000000000 ) ;
#72 = ORIENTED_EDGE ( 'NONE', *, *, #46, .T. ) ;
#73 = CIRCLE ( 'NONE', #27, 11.00000000000000000 ) ;
#74 = ADVANCED_FACE ( 'NONE', ( #10 ), #80, .T. ) ;
#75 = PERSON ( 'NEURÈENÝ', 'NEURÈENÝ', 'NEURÈENÝ', ('NEURÈENÝ'), ('NEURÈENÝ'), ('NEURÈENÝ') ) ;
#76 = PERSON_AND_ORGANIZATION_ROLE ( 'design_supplier' ) ;
#77 = PERSON_AND_ORGANIZATION ( #75, #168 ) ;
#78 = CARTESIAN_POINT ( 'NONE',  ( 11.00000000000000000, 1.347111479062088405E-15, 0.000000000000000000 ) ) ;
#79 = APPROVAL_STATUS ( 'not_yet_approved' ) ;
#80 = PLANE ( 'NONE',  #115 ) ;
#81 = DIRECTION ( 'NONE',  ( -0.000000000000000000, -0.000000000000000000, -1.000000000000000000 ) ) ;
#82 = UNCERTAINTY_MEASURE_WITH_UNIT (LENGTH_MEASURE( 1.000000000000000082E-05 ), #247, 'distance_accuracy_value', 'NONE');
#83 = DIRECTION ( 'NONE',  ( 0.000000000000000000, 0.000000000000000000, 1.000000000000000000 ) ) ;
#84 = AXIS2_PLACEMENT_3D ( 'NONE', #248, #228, #203 ) ;
#85 = CARTESIAN_POINT ( 'NONE',  ( -11.00000000000000000, 0.000000000000000000, 7.000000000000000000 ) ) ;
#86 = VERTEX_POINT ( 'NONE', #187 ) ;
#87 = ORIENTED_EDGE ( 'NONE', *, *, #133, .T. ) ;
#88 = ORIENTED_EDGE ( 'NONE', *, *, #66, .T. ) ;
#89 = VERTEX_POINT ( 'NONE', #67 ) ;
#90 = CC_DESIGN_PERSON_AND_ORGANIZATION_ASSIGNMENT ( #114, #116, ( #40 ) ) ;
#91 = PRODUCT_DEFINITION_FORMATION_WITH_SPECIFIED_SOURCE ( 'LIBOVOLNÝ', '', #178, .NOT_KNOWN. ) ;
#92 = DATE_AND_TIME ( #235, #240 ) ;
#93 = CIRCLE ( 'NONE', #128, 7.250000000000000000 ) ;
#94 = EDGE_CURVE ( 'NONE', #132, #49, #55, .T. ) ;
#95 = CC_DESIGN_PERSON_AND_ORGANIZATION_ASSIGNMENT ( #35, #76, ( #91 ) ) ;
#96 = CIRCLE ( 'NONE', #158, 11.00000000000000000 ) ;
#97 = DATE_AND_TIME ( #18, #24 ) ;
#98 = AXIS2_PLACEMENT_3D ( 'NONE', #156, #59, #140 ) ;
#99 = DIRECTION ( 'NONE',  ( 0.000000000000000000, 0.000000000000000000, 1.000000000000000000 ) ) ;
#100 = FACE_OUTER_BOUND ( 'NONE', #129, .T. ) ;
#101 = PERSON_AND_ORGANIZATION ( #75, #168 ) ;
#102 = CARTESIAN_POINT ( 'NONE',  ( 0.000000000000000000, 0.000000000000000000, 207.0000000000000284 ) ) ;
#103 = CARTESIAN_POINT ( 'NONE',  ( 0.000000000000000000, 0.000000000000000000, 7.000000000000000000 ) ) ;
#104 = FACE_OUTER_BOUND ( 'NONE', #31, .T. ) ;
#105 = ADVANCED_FACE ( 'NONE', ( #26 ), #21, .T. ) ;
#106 = ORIENTED_EDGE ( 'NONE', *, *, #41, .F. ) ;
#107 = AXIS2_PLACEMENT_3D ( 'NONE', #103, #161, #206 ) ;
#108 = DIRECTION ( 'NONE',  ( -0.000000000000000000, -0.000000000000000000, -1.000000000000000000 ) ) ;
#109 = EDGE_LOOP ( 'NONE', ( #106, #255, #212, #87 ) ) ;
#110 = ADVANCED_FACE ( 'NONE', ( #8 ), #44, .T. ) ;
#111 = ORIENTED_EDGE ( 'NONE', *, *, #160, .F. ) ;
#112 = AXIS2_PLACEMENT_3D ( 'NONE', #138, #182, #221 ) ;
#113 = ADVANCED_FACE ( 'NONE', ( #100 ), #186, .F. ) ;
#114 = PERSON_AND_ORGANIZATION ( #75, #168 ) ;
#115 = AXIS2_PLACEMENT_3D ( 'NONE', #102, #201, #163 ) ;
#116 = PERSON_AND_ORGANIZATION_ROLE ( 'classification_officer' ) ;
#117 = APPROVAL_ROLE ( '' ) ;
#118 = PERSON_AND_ORGANIZATION_ROLE ( 'creator' ) ;
#119 = CARTESIAN_POINT ( 'NONE',  ( -7.250000000000000000, 0.000000000000000000, 7.000000000000000000 ) ) ;
#120 = APPLICATION_PROTOCOL_DEFINITION ( 'international standard', 'config_control_design', 1994, #217 ) ;
#121 = FACE_OUTER_BOUND ( 'NONE', #109, .T. ) ;
#122 = CARTESIAN_POINT ( 'NONE',  ( 0.000000000000000000, 0.000000000000000000, 7.000000000000000000 ) ) ;
#123 = DIRECTION ( 'NONE',  ( -1.000000000000000000, 0.000000000000000000, 0.000000000000000000 ) ) ;
#124 = APPROVAL_PERSON_ORGANIZATION ( #198, #251, #239 ) ;
#125 = DIRECTION ( 'NONE',  ( -0.000000000000000000, -0.000000000000000000, -1.000000000000000000 ) ) ;
#126 = LINE ( 'NONE', #13, #48 ) ;
#127 = CC_DESIGN_PERSON_AND_ORGANIZATION_ASSIGNMENT ( #101, #118, ( #209 ) ) ;
#128 = AXIS2_PLACEMENT_3D ( 'NONE', #64, #165, #11 ) ;
#129 = EDGE_LOOP ( 'NONE', ( #148, #152 ) ) ;
#130 = CIRCLE ( 'NONE', #98, 11.00000000000000000 ) ;
#131 = VERTEX_POINT ( 'NONE', #78 ) ;
#132 = VERTEX_POINT ( 'NONE', #146 ) ;
#133 = EDGE_CURVE ( 'NONE', #233, #208, #155, .T. ) ;
#134 = CARTESIAN_POINT ( 'NONE',  ( 0.000000000000000000, 0.000000000000000000, 0.000000000000000000 ) ) ;
#135 = ADVANCED_FACE ( 'NONE', ( #104 ), #147, .T. ) ;
#136 = ADVANCED_BREP_SHAPE_REPRESENTATION ( 'd9a3', ( #238, #137 ), #4 ) ;
#137 = AXIS2_PLACEMENT_3D ( 'NONE', #185, #99, #245 ) ;
#138 = CARTESIAN_POINT ( 'NONE',  ( 0.000000000000000000, 0.000000000000000000, 7.000000000000000000 ) ) ;
#139 =( NAMED_UNIT ( * ) PLANE_ANGLE_UNIT ( ) SI_UNIT ( $, .RADIAN. ) );
#140 = DIRECTION ( 'NONE',  ( 1.000000000000000000, 0.000000000000000000, 0.000000000000000000 ) ) ;
#141 = CARTESIAN_POINT ( 'NONE',  ( 0.000000000000000000, 0.000000000000000000, 7.000000000000000000 ) ) ;
#142 = APPROVAL ( #5, 'NEURÈENÝ' ) ;
#143 = CALENDAR_DATE ( 2022, 7, 7 ) ;
#144 = CARTESIAN_POINT ( 'NONE',  ( 7.250000000000000000, 8.878689293818310074E-16, 207.0000000000000284 ) ) ;
#145 = PRODUCT_DEFINITION_SHAPE ( 'NONE', 'NONE',  #209 ) ;
#146 = CARTESIAN_POINT ( 'NONE',  ( 11.00000000000000000, 1.347111479062088405E-15, 7.000000000000000000 ) ) ;
#147 = CYLINDRICAL_SURFACE ( 'NONE', #107, 11.00000000000000000 ) ;
#148 = ORIENTED_EDGE ( 'NONE', *, *, #237, .F. ) ;
#149 = PRODUCT_RELATED_PRODUCT_CATEGORY ( 'detail', '', ( #178 ) ) ;
#150 = AXIS2_PLACEMENT_3D ( 'NONE', #12, #83, #167 ) ;
#151 = ORIENTED_EDGE ( 'NONE', *, *, #207, .F. ) ;
#152 = ORIENTED_EDGE ( 'NONE', *, *, #1, .F. ) ;
#153 = PERSON_AND_ORGANIZATION_ROLE ( 'creator' ) ;
#154 = SHAPE_DEFINITION_REPRESENTATION ( #145, #136 ) ;
#155 = CIRCLE ( 'NONE', #234, 7.250000000000000000 ) ;
#156 = CARTESIAN_POINT ( 'NONE',  ( 0.000000000000000000, 0.000000000000000000, 0.000000000000000000 ) ) ;
#157 = ADVANCED_FACE ( 'NONE', ( #121 ), #45, .T. ) ;
#158 = AXIS2_PLACEMENT_3D ( 'NONE', #171, #253, #69 ) ;
#159 = AXIS2_PLACEMENT_3D ( 'NONE', #225, #250, #65 ) ;
#160 = EDGE_CURVE ( 'NONE', #51, #89, #71, .T. ) ;
#161 = DIRECTION ( 'NONE',  ( -0.000000000000000000, -0.000000000000000000, -1.000000000000000000 ) ) ;
#162 = APPROVAL_ROLE ( '' ) ;
#163 = DIRECTION ( 'NONE',  ( 1.000000000000000000, 0.000000000000000000, -0.000000000000000000 ) ) ;
#164 = APPLICATION_CONTEXT ( 'configuration controlled 3d designs of mechanical parts and assemblies' ) ;
#165 = DIRECTION ( 'NONE',  ( 0.000000000000000000, 0.000000000000000000, 1.000000000000000000 ) ) ;
#166 = CC_DESIGN_DATE_AND_TIME_ASSIGNMENT ( #92, #177, ( #40 ) ) ;
#167 = DIRECTION ( 'NONE',  ( 1.000000000000000000, 0.000000000000000000, 0.000000000000000000 ) ) ;
#168 = ORGANIZATION ( 'NEURÈENÝ', 'NEURÈENÝ', '' ) ;
#169 = DIRECTION ( 'NONE',  ( 1.000000000000000000, 0.000000000000000000, 0.000000000000000000 ) ) ;
#170 = DIRECTION ( 'NONE',  ( 1.000000000000000000, 0.000000000000000000, 0.000000000000000000 ) ) ;
#171 = CARTESIAN_POINT ( 'NONE',  ( 0.000000000000000000, 0.000000000000000000, 7.000000000000000000 ) ) ;
#172 = ORIENTED_EDGE ( 'NONE', *, *, #3, .F. ) ;
#173 = ORIENTED_EDGE ( 'NONE', *, *, #1, .T. ) ;
#174 = VECTOR ( 'NONE', #81, 1000.000000000000000 ) ;
#175 = APPROVAL_DATE_TIME ( #236, #142 ) ;
#176 = CC_DESIGN_APPROVAL ( #142, ( #91 ) ) ;
#177 = DATE_TIME_ROLE ( 'classification_date' ) ;
#178 = PRODUCT ( 'd9a3', 'd9a3', '', ( #6 ) ) ;
#179 = DATE_TIME_ROLE ( 'creation_date' ) ;
#180 = LOCAL_TIME ( 19, 12, 25.00000000000000000, #37 ) ;
#181 = ADVANCED_FACE ( 'NONE', ( #230, #47 ), #242, .T. ) ;
#182 = DIRECTION ( 'NONE',  ( 0.000000000000000000, 0.000000000000000000, 1.000000000000000000 ) ) ;
#183 = DIRECTION ( 'NONE',  ( -0.000000000000000000, -0.000000000000000000, -1.000000000000000000 ) ) ;
#184 = DIRECTION ( 'NONE',  ( 0.000000000000000000, 0.000000000000000000, 1.000000000000000000 ) ) ;
#185 = CARTESIAN_POINT ( 'NONE',  ( 0.000000000000000000, 0.000000000000000000, 0.000000000000000000 ) ) ;
#186 = PLANE ( 'NONE',  #84 ) ;
#187 = CARTESIAN_POINT ( 'NONE',  ( -11.00000000000000000, 0.000000000000000000, 0.000000000000000000 ) ) ;
#188 = DIRECTION ( 'NONE',  ( -0.000000000000000000, -0.000000000000000000, -1.000000000000000000 ) ) ;
#189 = LINE ( 'NONE', #23, #174 ) ;
#190 = DIRECTION ( 'NONE',  ( 0.000000000000000000, 0.000000000000000000, 1.000000000000000000 ) ) ;
#191 = EDGE_CURVE ( 'NONE', #208, #233, #61, .T. ) ;
#192 = ORIENTED_EDGE ( 'NONE', *, *, #94, .F. ) ;
#193 = AXIS2_PLACEMENT_3D ( 'NONE', #141, #184, #169 ) ;
#194 = ORIENTED_EDGE ( 'NONE', *, *, #207, .T. ) ;
#195 = ORIENTED_EDGE ( 'NONE', *, *, #41, .T. ) ;
#196 = APPROVAL_STATUS ( 'not_yet_approved' ) ;
#197 = DESIGN_CONTEXT ( 'detailed design', #164, 'design' ) ;
#198 = PERSON_AND_ORGANIZATION ( #75, #168 ) ;
#199 = COORDINATED_UNIVERSAL_TIME_OFFSET ( 1, 0, .AHEAD. ) ;
#200 = PERSON_AND_ORGANIZATION ( #75, #168 ) ;
#201 = DIRECTION ( 'NONE',  ( 0.000000000000000000, 0.000000000000000000, 1.000000000000000000 ) ) ;
#202 = LINE ( 'NONE', #39, #57 ) ;
#203 = DIRECTION ( 'NONE',  ( 1.000000000000000000, 0.000000000000000000, -0.000000000000000000 ) ) ;
#204 = CC_DESIGN_APPROVAL ( #222, ( #209 ) ) ;
#205 = CARTESIAN_POINT ( 'NONE',  ( 0.000000000000000000, 0.000000000000000000, 7.000000000000000000 ) ) ;
#206 = DIRECTION ( 'NONE',  ( -1.000000000000000000, 0.000000000000000000, 0.000000000000000000 ) ) ;
#207 = EDGE_CURVE ( 'NONE', #49, #86, #202, .T. ) ;
#208 = VERTEX_POINT ( 'NONE', #60 ) ;
#209 = PRODUCT_DEFINITION ( 'NEZNÁMÝ', '', #91, #197 ) ;
#210 = CARTESIAN_POINT ( 'NONE',  ( -7.250000000000000000, 0.000000000000000000, 207.0000000000000284 ) ) ;
#211 = CC_DESIGN_SECURITY_CLASSIFICATION ( #40, ( #91 ) ) ;
#212 = ORIENTED_EDGE ( 'NONE', *, *, #3, .T. ) ;
#213 = EDGE_LOOP ( 'NONE', ( #50, #28 ) ) ;
#214 = ORIENTED_EDGE ( 'NONE', *, *, #237, .T. ) ;
#215 = LOCAL_TIME ( 19, 12, 25.00000000000000000, #63 ) ;
#216 = COORDINATED_UNIVERSAL_TIME_OFFSET ( 1, 0, .AHEAD. ) ;
#217 = APPLICATION_CONTEXT ( 'configuration controlled 3d designs of mechanical parts and assemblies' ) ;
#218 = CALENDAR_DATE ( 2022, 7, 7 ) ;
#219 = AXIS2_PLACEMENT_3D ( 'NONE', #122, #58, #19 ) ;
#220 = CALENDAR_DATE ( 2022, 7, 7 ) ;
#221 = DIRECTION ( 'NONE',  ( 1.000000000000000000, 0.000000000000000000, 0.000000000000000000 ) ) ;
#222 = APPROVAL ( #79, 'NEURÈENÝ' ) ;
#223 = AXIS2_PLACEMENT_3D ( 'NONE', #246, #188, #62 ) ;
#224 =( NAMED_UNIT ( * ) SI_UNIT ( $, .STERADIAN. ) SOLID_ANGLE_UNIT ( ) );
#225 = CARTESIAN_POINT ( 'NONE',  ( 0.000000000000000000, 0.000000000000000000, 207.0000000000000284 ) ) ;
#226 = CC_DESIGN_PERSON_AND_ORGANIZATION_ASSIGNMENT ( #54, #153, ( #91 ) ) ;
#227 = APPROVAL_DATE_TIME ( #43, #222 ) ;
#228 = DIRECTION ( 'NONE',  ( 0.000000000000000000, 0.000000000000000000, 1.000000000000000000 ) ) ;
#229 = CARTESIAN_POINT ( 'NONE',  ( 0.000000000000000000, 0.000000000000000000, 7.000000000000000000 ) ) ;
#230 = FACE_BOUND ( 'NONE', #70, .T. ) ;
#231 = LINE ( 'NONE', #210, #243 ) ;
#232 = ORIENTED_EDGE ( 'NONE', *, *, #191, .F. ) ;
#233 = VERTEX_POINT ( 'NONE', #119 ) ;
#234 = AXIS2_PLACEMENT_3D ( 'NONE', #229, #42, #25 ) ;
#235 = CALENDAR_DATE ( 2022, 7, 7 ) ;
#236 = DATE_AND_TIME ( #220, #180 ) ;
#237 = EDGE_CURVE ( 'NONE', #86, #131, #130, .T. ) ;
#238 = MANIFOLD_SOLID_BREP ( 'Pøidat vysunutím3', #52 ) ;
#239 = APPROVAL_ROLE ( '' ) ;
#240 = LOCAL_TIME ( 19, 12, 25.00000000000000000, #34 ) ;
#241 = CC_DESIGN_DATE_AND_TIME_ASSIGNMENT ( #97, #179, ( #209 ) ) ;
#242 = PLANE ( 'NONE',  #219 ) ;
#243 = VECTOR ( 'NONE', #108, 1000.000000000000000 ) ;
#244 = AXIS2_PLACEMENT_3D ( 'NONE', #205, #249, #123 ) ;
#245 = DIRECTION ( 'NONE',  ( 1.000000000000000000, 0.000000000000000000, 0.000000000000000000 ) ) ;
#246 = CARTESIAN_POINT ( 'NONE',  ( 0.000000000000000000, 0.000000000000000000, 207.0000000000000284 ) ) ;
#247 =( LENGTH_UNIT ( ) NAMED_UNIT ( * ) SI_UNIT ( .MILLI., .METRE. ) );
#248 = CARTESIAN_POINT ( 'NONE',  ( 0.000000000000000000, 0.000000000000000000, 0.000000000000000000 ) ) ;
#249 = DIRECTION ( 'NONE',  ( -0.000000000000000000, -0.000000000000000000, -1.000000000000000000 ) ) ;
#250 = DIRECTION ( 'NONE',  ( -0.000000000000000000, -0.000000000000000000, -1.000000000000000000 ) ) ;
#251 = APPROVAL ( #196, 'NEURÈENÝ' ) ;
#252 = ORIENTED_EDGE ( 'NONE', *, *, #160, .T. ) ;
#253 = DIRECTION ( 'NONE',  ( 0.000000000000000000, 0.000000000000000000, 1.000000000000000000 ) ) ;
#254 = EDGE_LOOP ( 'NONE', ( #72, #252 ) ) ;
#255 = ORIENTED_EDGE ( 'NONE', *, *, #46, .F. ) ;
ENDSEC;
END-ISO-10303-21;
