ISO-10303-21;
HEADER;
FILE_DESCRIPTION (( 'STEP AP203' ),
    '1' );
FILE_NAME ('777c.STEP',
    '2023-02-13T08:43:41',
    ( '' ),
    ( '' ),
    'SwSTEP 2.0',
    'SolidWorks 2019',
    '' );
FILE_SCHEMA (( 'CONFIG_CONTROL_DESIGN' ));
ENDSEC;

DATA;
#1 = CYLINDRICAL_SURFACE ( 'NONE', #117, 10.00000000000000178 ) ;
#2 = EDGE_CURVE ( 'NONE', #114, #82, #16, .T. ) ;
#3 = VERTEX_POINT ( 'NONE', #42 ) ;
#4 = DATE_AND_TIME ( #91, #127 ) ;
#5 = COORDINATED_UNIVERSAL_TIME_OFFSET ( 1, 0, .AHEAD. ) ;
#6 = CC_DESIGN_PERSON_AND_ORGANIZATION_ASSIGNMENT ( #53, #174, ( #188 ) ) ;
#7 = LINE ( 'NONE', #58, #165 ) ;
#8 = DIRECTION ( 'NONE',  ( -1.000000000000000000, 0.000000000000000000, 0.000000000000000000 ) ) ;
#9 = CC_DESIGN_PERSON_AND_ORGANIZATION_ASSIGNMENT ( #34, #115, ( #35 ) ) ;
#10 = DATE_TIME_ROLE ( 'creation_date' ) ;
#11 = CARTESIAN_POINT ( 'NONE',  ( -10.00000000000000178, 0.000000000000000000, 400.0000000000000000 ) ) ;
#12 = ORIENTED_EDGE ( 'NONE', *, *, #104, .T. ) ;
#13 = LOCAL_TIME ( 9, 43, 41.00000000000000000, #95 ) ;
#14 = CARTESIAN_POINT ( 'NONE',  ( 0.000000000000000000, 0.000000000000000000, 8.000000000000000000 ) ) ;
#15 = PERSON ( 'NEURÈENÝ', 'NEURÈENÝ', 'NEURÈENÝ', ('NEURÈENÝ'), ('NEURÈENÝ'), ('NEURÈENÝ') ) ;
#16 = LINE ( 'NONE', #157, #145 ) ;
#17 = AXIS2_PLACEMENT_3D ( 'NONE', #38, #246, #221 ) ;
#18 = EDGE_CURVE ( 'NONE', #251, #244, #26, .T. ) ;
#19 = ADVANCED_FACE ( 'NONE', ( #230 ), #163, .T. ) ;
#20 = AXIS2_PLACEMENT_3D ( 'NONE', #240, #253, #184 ) ;
#21 = CALENDAR_DATE ( 2023, 13, 2 ) ;
#22 = CARTESIAN_POINT ( 'NONE',  ( -13.00000000000000178, 0.000000000000000000, 0.000000000000000000 ) ) ;
#23 = ORIENTED_EDGE ( 'NONE', *, *, #60, .F. ) ;
#24 = EDGE_LOOP ( 'NONE', ( #36, #61, #217, #171 ) ) ;
#25 = LINE ( 'NONE', #169, #111 ) ;
#26 = CIRCLE ( 'NONE', #80, 10.00000000000000178 ) ;
#27 = CARTESIAN_POINT ( 'NONE',  ( 13.00000000000000178, 1.592040838891559293E-15, 8.000000000000000000 ) ) ;
#28 = CARTESIAN_POINT ( 'NONE',  ( 0.000000000000000000, 0.000000000000000000, 400.0000000000000000 ) ) ;
#29 = ADVANCED_FACE ( 'NONE', ( #242 ), #224, .T. ) ;
#30 = DIRECTION ( 'NONE',  ( -0.000000000000000000, -0.000000000000000000, -1.000000000000000000 ) ) ;
#31 = PERSON_AND_ORGANIZATION_ROLE ( 'creator' ) ;
#32 = ADVANCED_BREP_SHAPE_REPRESENTATION ( '777c', ( #238, #140 ), #54 ) ;
#33 = EDGE_CURVE ( 'NONE', #3, #214, #7, .T. ) ;
#34 = PERSON_AND_ORGANIZATION ( #15, #167 ) ;
#35 = SECURITY_CLASSIFICATION ( '', '', #137 ) ;
#36 = ORIENTED_EDGE ( 'NONE', *, *, #2, .F. ) ;
#37 = APPLICATION_PROTOCOL_DEFINITION ( 'international standard', 'config_control_design', 1994, #237 ) ;
#38 = CARTESIAN_POINT ( 'NONE',  ( 0.000000000000000000, 0.000000000000000000, 8.000000000000000000 ) ) ;
#39 = DATE_TIME_ROLE ( 'classification_date' ) ;
#40 = CARTESIAN_POINT ( 'NONE',  ( 0.000000000000000000, 0.000000000000000000, 400.0000000000000000 ) ) ;
#41 = DIRECTION ( 'NONE',  ( 0.000000000000000000, 0.000000000000000000, 1.000000000000000000 ) ) ;
#42 = CARTESIAN_POINT ( 'NONE',  ( -13.00000000000000178, 0.000000000000000000, 8.000000000000000000 ) ) ;
#43 = AXIS2_PLACEMENT_3D ( 'NONE', #208, #153, #141 ) ;
#44 = PRODUCT_RELATED_PRODUCT_CATEGORY ( 'detail', '', ( #188 ) ) ;
#45 = AXIS2_PLACEMENT_3D ( 'NONE', #166, #148, #181 ) ;
#46 = ORIENTED_EDGE ( 'NONE', *, *, #103, .T. ) ;
#47 = CARTESIAN_POINT ( 'NONE',  ( 0.000000000000000000, 0.000000000000000000, 8.000000000000000000 ) ) ;
#48 = PLANE ( 'NONE',  #229 ) ;
#49 = CARTESIAN_POINT ( 'NONE',  ( 10.00000000000000178, 1.224646799147353454E-15, 8.000000000000000000 ) ) ;
#50 = EDGE_CURVE ( 'NONE', #3, #114, #65, .T. ) ;
#51 = EDGE_LOOP ( 'NONE', ( #97, #210 ) ) ;
#52 = ORIENTED_EDGE ( 'NONE', *, *, #63, .F. ) ;
#53 = PERSON_AND_ORGANIZATION ( #15, #167 ) ;
#54 =( GEOMETRIC_REPRESENTATION_CONTEXT ( 3 ) GLOBAL_UNCERTAINTY_ASSIGNED_CONTEXT ( ( #226 ) ) GLOBAL_UNIT_ASSIGNED_CONTEXT ( ( #130, #147, #64 ) ) REPRESENTATION_CONTEXT ( 'NONE', 'WORKASPACE' ) );
#55 = ORIENTED_EDGE ( 'NONE', *, *, #18, .F. ) ;
#56 = PERSON_AND_ORGANIZATION ( #15, #167 ) ;
#57 = DIRECTION ( 'NONE',  ( 0.000000000000000000, 0.000000000000000000, 1.000000000000000000 ) ) ;
#58 = CARTESIAN_POINT ( 'NONE',  ( -13.00000000000000178, 0.000000000000000000, 8.000000000000000000 ) ) ;
#59 = EDGE_CURVE ( 'NONE', #214, #82, #99, .T. ) ;
#60 = EDGE_CURVE ( 'NONE', #70, #244, #193, .T. ) ;
#61 = ORIENTED_EDGE ( 'NONE', *, *, #50, .F. ) ;
#62 = APPROVAL_PERSON_ORGANIZATION ( #100, #142, #78 ) ;
#63 = EDGE_CURVE ( 'NONE', #114, #3, #234, .T. ) ;
#64 =( NAMED_UNIT ( * ) SI_UNIT ( $, .STERADIAN. ) SOLID_ANGLE_UNIT ( ) );
#65 = CIRCLE ( 'NONE', #211, 13.00000000000000178 ) ;
#66 = ADVANCED_FACE ( 'NONE', ( #175 ), #138, .T. ) ;
#67 = DIRECTION ( 'NONE',  ( -0.000000000000000000, -0.000000000000000000, -1.000000000000000000 ) ) ;
#68 = APPLICATION_PROTOCOL_DEFINITION ( 'international standard', 'config_control_design', 1994, #231 ) ;
#69 = CARTESIAN_POINT ( 'NONE',  ( 0.000000000000000000, 0.000000000000000000, 8.000000000000000000 ) ) ;
#70 = VERTEX_POINT ( 'NONE', #88 ) ;
#71 = CC_DESIGN_APPROVAL ( #179, ( #216 ) ) ;
#72 = DIRECTION ( 'NONE',  ( 0.000000000000000000, 0.000000000000000000, 1.000000000000000000 ) ) ;
#73 = DIRECTION ( 'NONE',  ( 1.000000000000000000, 0.000000000000000000, 0.000000000000000000 ) ) ;
#74 = VECTOR ( 'NONE', #96, 1000.000000000000000 ) ;
#75 = PERSON_AND_ORGANIZATION ( #15, #167 ) ;
#76 = CARTESIAN_POINT ( 'NONE',  ( 0.000000000000000000, 0.000000000000000000, 8.000000000000000000 ) ) ;
#77 = AXIS2_PLACEMENT_3D ( 'NONE', #40, #162, #183 ) ;
#78 = APPROVAL_ROLE ( '' ) ;
#79 = DIRECTION ( 'NONE',  ( 0.000000000000000000, 0.000000000000000000, 1.000000000000000000 ) ) ;
#80 = AXIS2_PLACEMENT_3D ( 'NONE', #14, #41, #81 ) ;
#81 = DIRECTION ( 'NONE',  ( 1.000000000000000000, 0.000000000000000000, 0.000000000000000000 ) ) ;
#82 = VERTEX_POINT ( 'NONE', #218 ) ;
#83 = DIRECTION ( 'NONE',  ( 0.000000000000000000, 0.000000000000000000, 1.000000000000000000 ) ) ;
#84 = CC_DESIGN_DATE_AND_TIME_ASSIGNMENT ( #4, #10, ( #216 ) ) ;
#85 = DIRECTION ( 'NONE',  ( 1.000000000000000000, 0.000000000000000000, 0.000000000000000000 ) ) ;
#86 = AXIS2_PLACEMENT_3D ( 'NONE', #232, #160, #126 ) ;
#87 = APPROVAL_DATE_TIME ( #112, #241 ) ;
#88 = CARTESIAN_POINT ( 'NONE',  ( -10.00000000000000178, 0.000000000000000000, 400.0000000000000000 ) ) ;
#89 = ORIENTED_EDGE ( 'NONE', *, *, #233, .F. ) ;
#90 = PRODUCT_DEFINITION_FORMATION_WITH_SPECIFIED_SOURCE ( 'LIBOVOLNÝ', '', #188, .NOT_KNOWN. ) ;
#91 = CALENDAR_DATE ( 2023, 13, 2 ) ;
#92 = CARTESIAN_POINT ( 'NONE',  ( 0.000000000000000000, 0.000000000000000000, 8.000000000000000000 ) ) ;
#93 = ORIENTED_EDGE ( 'NONE', *, *, #18, .T. ) ;
#94 = ADVANCED_FACE ( 'NONE', ( #134 ), #177, .F. ) ;
#95 = COORDINATED_UNIVERSAL_TIME_OFFSET ( 1, 0, .AHEAD. ) ;
#96 = DIRECTION ( 'NONE',  ( -0.000000000000000000, -0.000000000000000000, -1.000000000000000000 ) ) ;
#97 = ORIENTED_EDGE ( 'NONE', *, *, #59, .F. ) ;
#98 = APPROVAL_DATE_TIME ( #227, #142 ) ;
#99 = CIRCLE ( 'NONE', #43, 13.00000000000000178 ) ;
#100 = PERSON_AND_ORGANIZATION ( #15, #167 ) ;
#101 = ORIENTED_EDGE ( 'NONE', *, *, #60, .T. ) ;
#102 = EDGE_LOOP ( 'NONE', ( #143, #55 ) ) ;
#103 = EDGE_CURVE ( 'NONE', #82, #214, #176, .T. ) ;
#104 = EDGE_CURVE ( 'NONE', #189, #70, #255, .T. ) ;
#105 = CARTESIAN_POINT ( 'NONE',  ( -10.00000000000000178, 0.000000000000000000, 8.000000000000000000 ) ) ;
#106 = EDGE_LOOP ( 'NONE', ( #52, #116, #46, #123 ) ) ;
#107 = DIRECTION ( 'NONE',  ( -0.000000000000000000, -0.000000000000000000, -1.000000000000000000 ) ) ;
#108 = ADVANCED_FACE ( 'NONE', ( #149 ), #1, .T. ) ;
#109 = PLANE ( 'NONE',  #45 ) ;
#110 = AXIS2_PLACEMENT_3D ( 'NONE', #28, #30, #8 ) ;
#111 = VECTOR ( 'NONE', #107, 1000.000000000000000 ) ;
#112 = DATE_AND_TIME ( #205, #13 ) ;
#113 = DIRECTION ( 'NONE',  ( 0.000000000000000000, 0.000000000000000000, 1.000000000000000000 ) ) ;
#114 = VERTEX_POINT ( 'NONE', #27 ) ;
#115 = PERSON_AND_ORGANIZATION_ROLE ( 'classification_officer' ) ;
#116 = ORIENTED_EDGE ( 'NONE', *, *, #2, .T. ) ;
#117 = AXIS2_PLACEMENT_3D ( 'NONE', #201, #67, #131 ) ;
#118 = APPROVAL_STATUS ( 'not_yet_approved' ) ;
#119 = EDGE_LOOP ( 'NONE', ( #185, #12 ) ) ;
#120 = DESIGN_CONTEXT ( 'detailed design', #237, 'design' ) ;
#121 = APPROVAL_ROLE ( '' ) ;
#122 = DIRECTION ( 'NONE',  ( -0.000000000000000000, -0.000000000000000000, -1.000000000000000000 ) ) ;
#123 = ORIENTED_EDGE ( 'NONE', *, *, #33, .F. ) ;
#124 = APPROVAL_STATUS ( 'not_yet_approved' ) ;
#125 = APPROVAL_PERSON_ORGANIZATION ( #75, #241, #220 ) ;
#126 = DIRECTION ( 'NONE',  ( 1.000000000000000000, 0.000000000000000000, -0.000000000000000000 ) ) ;
#127 = LOCAL_TIME ( 9, 43, 41.00000000000000000, #132 ) ;
#128 = DIRECTION ( 'NONE',  ( 1.000000000000000000, 0.000000000000000000, -0.000000000000000000 ) ) ;
#129 = LOCAL_TIME ( 9, 43, 41.00000000000000000, #5 ) ;
#130 =( LENGTH_UNIT ( ) NAMED_UNIT ( * ) SI_UNIT ( .MILLI., .METRE. ) );
#131 = DIRECTION ( 'NONE',  ( -1.000000000000000000, 0.000000000000000000, 0.000000000000000000 ) ) ;
#132 = COORDINATED_UNIVERSAL_TIME_OFFSET ( 1, 0, .AHEAD. ) ;
#133 = DIRECTION ( 'NONE',  ( 1.000000000000000000, 0.000000000000000000, 0.000000000000000000 ) ) ;
#134 = FACE_OUTER_BOUND ( 'NONE', #51, .T. ) ;
#135 = ORIENTED_EDGE ( 'NONE', *, *, #63, .T. ) ;
#136 = CC_DESIGN_PERSON_AND_ORGANIZATION_ASSIGNMENT ( #192, #31, ( #216 ) ) ;
#137 = SECURITY_CLASSIFICATION_LEVEL ( 'unclassified' ) ;
#138 = CYLINDRICAL_SURFACE ( 'NONE', #146, 13.00000000000000178 ) ;
#139 = AXIS2_PLACEMENT_3D ( 'NONE', #92, #57, #73 ) ;
#140 = AXIS2_PLACEMENT_3D ( 'NONE', #249, #72, #133 ) ;
#141 = DIRECTION ( 'NONE',  ( 1.000000000000000000, 0.000000000000000000, 0.000000000000000000 ) ) ;
#142 = APPROVAL ( #124, 'NEURÈENÝ' ) ;
#143 = ORIENTED_EDGE ( 'NONE', *, *, #154, .F. ) ;
#144 = ORIENTED_EDGE ( 'NONE', *, *, #154, .T. ) ;
#145 = VECTOR ( 'NONE', #197, 1000.000000000000000 ) ;
#146 = AXIS2_PLACEMENT_3D ( 'NONE', #69, #151, #173 ) ;
#147 =( NAMED_UNIT ( * ) PLANE_ANGLE_UNIT ( ) SI_UNIT ( $, .RADIAN. ) );
#148 = DIRECTION ( 'NONE',  ( 0.000000000000000000, 0.000000000000000000, 1.000000000000000000 ) ) ;
#149 = FACE_OUTER_BOUND ( 'NONE', #222, .T. ) ;
#150 = CARTESIAN_POINT ( 'NONE',  ( 0.000000000000000000, 0.000000000000000000, 8.000000000000000000 ) ) ;
#151 = DIRECTION ( 'NONE',  ( -0.000000000000000000, -0.000000000000000000, -1.000000000000000000 ) ) ;
#152 = APPROVAL_DATE_TIME ( #187, #179 ) ;
#153 = DIRECTION ( 'NONE',  ( 0.000000000000000000, 0.000000000000000000, 1.000000000000000000 ) ) ;
#154 = EDGE_CURVE ( 'NONE', #244, #251, #235, .T. ) ;
#155 = MECHANICAL_CONTEXT ( 'NONE', #231, 'mechanical' ) ;
#156 = CC_DESIGN_APPROVAL ( #142, ( #35 ) ) ;
#157 = CARTESIAN_POINT ( 'NONE',  ( 13.00000000000000178, 1.592040838891559293E-15, 8.000000000000000000 ) ) ;
#158 = CC_DESIGN_PERSON_AND_ORGANIZATION_ASSIGNMENT ( #245, #209, ( #90 ) ) ;
#159 = CALENDAR_DATE ( 2023, 13, 2 ) ;
#160 = DIRECTION ( 'NONE',  ( 0.000000000000000000, 0.000000000000000000, 1.000000000000000000 ) ) ;
#161 = AXIS2_PLACEMENT_3D ( 'NONE', #252, #79, #213 ) ;
#162 = DIRECTION ( 'NONE',  ( 0.000000000000000000, 0.000000000000000000, 1.000000000000000000 ) ) ;
#163 = CYLINDRICAL_SURFACE ( 'NONE', #110, 10.00000000000000178 ) ;
#164 = FACE_OUTER_BOUND ( 'NONE', #119, .T. ) ;
#165 = VECTOR ( 'NONE', #122, 1000.000000000000000 ) ;
#166 = CARTESIAN_POINT ( 'NONE',  ( 0.000000000000000000, 0.000000000000000000, 400.0000000000000000 ) ) ;
#167 = ORGANIZATION ( 'NEURÈENÝ', 'NEURÈENÝ', '' ) ;
#168 = EDGE_LOOP ( 'NONE', ( #194, #135 ) ) ;
#169 = CARTESIAN_POINT ( 'NONE',  ( 10.00000000000000178, 1.224646799147353454E-15, 400.0000000000000000 ) ) ;
#170 = PRODUCT_DEFINITION_SHAPE ( 'NONE', 'NONE',  #216 ) ;
#171 = ORIENTED_EDGE ( 'NONE', *, *, #59, .T. ) ;
#172 = PERSON_AND_ORGANIZATION_ROLE ( 'creator' ) ;
#173 = DIRECTION ( 'NONE',  ( -1.000000000000000000, 0.000000000000000000, 0.000000000000000000 ) ) ;
#174 = PERSON_AND_ORGANIZATION_ROLE ( 'design_owner' ) ;
#175 = FACE_OUTER_BOUND ( 'NONE', #24, .T. ) ;
#176 = CIRCLE ( 'NONE', #161, 13.00000000000000178 ) ;
#177 = PLANE ( 'NONE',  #86 ) ;
#178 = SHAPE_DEFINITION_REPRESENTATION ( #170, #32 ) ;
#179 = APPROVAL ( #118, 'NEURÈENÝ' ) ;
#180 = CLOSED_SHELL ( 'NONE', ( #108, #29, #66, #248, #94, #19, #223 ) ) ;
#181 = DIRECTION ( 'NONE',  ( 1.000000000000000000, 0.000000000000000000, -0.000000000000000000 ) ) ;
#182 = LOCAL_TIME ( 9, 43, 41.00000000000000000, #196 ) ;
#183 = DIRECTION ( 'NONE',  ( 1.000000000000000000, 0.000000000000000000, 0.000000000000000000 ) ) ;
#184 = DIRECTION ( 'NONE',  ( 1.000000000000000000, 0.000000000000000000, 0.000000000000000000 ) ) ;
#185 = ORIENTED_EDGE ( 'NONE', *, *, #203, .T. ) ;
#186 = DIRECTION ( 'NONE',  ( 1.000000000000000000, 0.000000000000000000, 0.000000000000000000 ) ) ;
#187 = DATE_AND_TIME ( #250, #190 ) ;
#188 = PRODUCT ( '777c', '777c', '', ( #155 ) ) ;
#189 = VERTEX_POINT ( 'NONE', #236 ) ;
#190 = LOCAL_TIME ( 9, 43, 41.00000000000000000, #212 ) ;
#191 = APPROVAL_STATUS ( 'not_yet_approved' ) ;
#192 = PERSON_AND_ORGANIZATION ( #15, #167 ) ;
#193 = LINE ( 'NONE', #11, #74 ) ;
#194 = ORIENTED_EDGE ( 'NONE', *, *, #50, .T. ) ;
#195 = APPROVAL_PERSON_ORGANIZATION ( #207, #179, #121 ) ;
#196 = COORDINATED_UNIVERSAL_TIME_OFFSET ( 1, 0, .AHEAD. ) ;
#197 = DIRECTION ( 'NONE',  ( -0.000000000000000000, -0.000000000000000000, -1.000000000000000000 ) ) ;
#198 = DATE_AND_TIME ( #159, #129 ) ;
#199 = ORIENTED_EDGE ( 'NONE', *, *, #203, .F. ) ;
#200 = DIRECTION ( 'NONE',  ( 0.000000000000000000, 0.000000000000000000, 1.000000000000000000 ) ) ;
#201 = CARTESIAN_POINT ( 'NONE',  ( 0.000000000000000000, 0.000000000000000000, 400.0000000000000000 ) ) ;
#202 = FACE_BOUND ( 'NONE', #102, .T. ) ;
#203 = EDGE_CURVE ( 'NONE', #70, #189, #254, .T. ) ;
#204 = CC_DESIGN_PERSON_AND_ORGANIZATION_ASSIGNMENT ( #56, #172, ( #90 ) ) ;
#205 = CALENDAR_DATE ( 2023, 13, 2 ) ;
#206 = CC_DESIGN_APPROVAL ( #241, ( #90 ) ) ;
#207 = PERSON_AND_ORGANIZATION ( #15, #167 ) ;
#208 = CARTESIAN_POINT ( 'NONE',  ( 0.000000000000000000, 0.000000000000000000, 0.000000000000000000 ) ) ;
#209 = PERSON_AND_ORGANIZATION_ROLE ( 'design_supplier' ) ;
#210 = ORIENTED_EDGE ( 'NONE', *, *, #103, .F. ) ;
#211 = AXIS2_PLACEMENT_3D ( 'NONE', #76, #113, #186 ) ;
#212 = COORDINATED_UNIVERSAL_TIME_OFFSET ( 1, 0, .AHEAD. ) ;
#213 = DIRECTION ( 'NONE',  ( 1.000000000000000000, 0.000000000000000000, 0.000000000000000000 ) ) ;
#214 = VERTEX_POINT ( 'NONE', #22 ) ;
#215 = AXIS2_PLACEMENT_3D ( 'NONE', #47, #200, #85 ) ;
#216 = PRODUCT_DEFINITION ( 'NEZNÁMÝ', '', #90, #120 ) ;
#217 = ORIENTED_EDGE ( 'NONE', *, *, #33, .T. ) ;
#218 = CARTESIAN_POINT ( 'NONE',  ( 13.00000000000000178, 1.592040838891559293E-15, 0.000000000000000000 ) ) ;
#219 = ORIENTED_EDGE ( 'NONE', *, *, #233, .T. ) ;
#220 = APPROVAL_ROLE ( '' ) ;
#221 = DIRECTION ( 'NONE',  ( -1.000000000000000000, 0.000000000000000000, 0.000000000000000000 ) ) ;
#222 = EDGE_LOOP ( 'NONE', ( #225, #219, #93, #23 ) ) ;
#223 = ADVANCED_FACE ( 'NONE', ( #164 ), #109, .T. ) ;
#224 = CYLINDRICAL_SURFACE ( 'NONE', #17, 13.00000000000000178 ) ;
#225 = ORIENTED_EDGE ( 'NONE', *, *, #104, .F. ) ;
#226 = UNCERTAINTY_MEASURE_WITH_UNIT (LENGTH_MEASURE( 1.000000000000000082E-05 ), #130, 'distance_accuracy_value', 'NONE');
#227 = DATE_AND_TIME ( #21, #182 ) ;
#228 = EDGE_LOOP ( 'NONE', ( #89, #199, #101, #144 ) ) ;
#229 = AXIS2_PLACEMENT_3D ( 'NONE', #150, #83, #128 ) ;
#230 = FACE_OUTER_BOUND ( 'NONE', #228, .T. ) ;
#231 = APPLICATION_CONTEXT ( 'configuration controlled 3d designs of mechanical parts and assemblies' ) ;
#232 = CARTESIAN_POINT ( 'NONE',  ( 0.000000000000000000, 0.000000000000000000, 0.000000000000000000 ) ) ;
#233 = EDGE_CURVE ( 'NONE', #189, #251, #25, .T. ) ;
#234 = CIRCLE ( 'NONE', #139, 13.00000000000000178 ) ;
#235 = CIRCLE ( 'NONE', #215, 10.00000000000000178 ) ;
#236 = CARTESIAN_POINT ( 'NONE',  ( 10.00000000000000178, 1.224646799147353454E-15, 400.0000000000000000 ) ) ;
#237 = APPLICATION_CONTEXT ( 'configuration controlled 3d designs of mechanical parts and assemblies' ) ;
#238 = MANIFOLD_SOLID_BREP ( 'Pøidat vysunutím3', #180 ) ;
#239 = FACE_OUTER_BOUND ( 'NONE', #168, .T. ) ;
#240 = CARTESIAN_POINT ( 'NONE',  ( 0.000000000000000000, 0.000000000000000000, 400.0000000000000000 ) ) ;
#241 = APPROVAL ( #191, 'NEURÈENÝ' ) ;
#242 = FACE_OUTER_BOUND ( 'NONE', #106, .T. ) ;
#243 = CC_DESIGN_DATE_AND_TIME_ASSIGNMENT ( #198, #39, ( #35 ) ) ;
#244 = VERTEX_POINT ( 'NONE', #105 ) ;
#245 = PERSON_AND_ORGANIZATION ( #15, #167 ) ;
#246 = DIRECTION ( 'NONE',  ( -0.000000000000000000, -0.000000000000000000, -1.000000000000000000 ) ) ;
#247 = CC_DESIGN_SECURITY_CLASSIFICATION ( #35, ( #90 ) ) ;
#248 = ADVANCED_FACE ( 'NONE', ( #202, #239 ), #48, .T. ) ;
#249 = CARTESIAN_POINT ( 'NONE',  ( 0.000000000000000000, 0.000000000000000000, 0.000000000000000000 ) ) ;
#250 = CALENDAR_DATE ( 2023, 13, 2 ) ;
#251 = VERTEX_POINT ( 'NONE', #49 ) ;
#252 = CARTESIAN_POINT ( 'NONE',  ( 0.000000000000000000, 0.000000000000000000, 0.000000000000000000 ) ) ;
#253 = DIRECTION ( 'NONE',  ( 0.000000000000000000, 0.000000000000000000, 1.000000000000000000 ) ) ;
#254 = CIRCLE ( 'NONE', #20, 10.00000000000000178 ) ;
#255 = CIRCLE ( 'NONE', #77, 10.00000000000000178 ) ;
ENDSEC;
END-ISO-10303-21;
