ISO-10303-21;
HEADER;
FILE_DESCRIPTION (( 'STEP AP203' ),
    '1' );
FILE_NAME ('54ed.STEP',
    '2022-07-07T17:07:52',
    ( '' ),
    ( '' ),
    'SwSTEP 2.0',
    'SolidWorks 2019',
    '' );
FILE_SCHEMA (( 'CONFIG_CONTROL_DESIGN' ));
ENDSEC;

DATA;
#1 = APPROVAL ( #19, 'NEURÈENÝ' ) ;
#2 = FACE_OUTER_BOUND ( 'NONE', #139, .T. ) ;
#3 = CIRCLE ( 'NONE', #209, 11.00000000000000000 ) ;
#4 = CIRCLE ( 'NONE', #137, 8.000000000000000000 ) ;
#5 = CARTESIAN_POINT ( 'NONE',  ( -8.000000000000000000, 0.000000000000000000, 207.0000000000000284 ) ) ;
#6 = DIRECTION ( 'NONE',  ( -0.000000000000000000, -0.000000000000000000, -1.000000000000000000 ) ) ;
#7 = DIRECTION ( 'NONE',  ( 1.000000000000000000, 0.000000000000000000, -0.000000000000000000 ) ) ;
#8 = DIRECTION ( 'NONE',  ( 0.000000000000000000, 0.000000000000000000, 1.000000000000000000 ) ) ;
#9 = CARTESIAN_POINT ( 'NONE',  ( -11.00000000000000000, 0.000000000000000000, 7.000000000000000000 ) ) ;
#10 = ORIENTED_EDGE ( 'NONE', *, *, #206, .T. ) ;
#11 = PRODUCT_DEFINITION_SHAPE ( 'NONE', 'NONE',  #148 ) ;
#12 = FACE_OUTER_BOUND ( 'NONE', #110, .T. ) ;
#13 = PERSON_AND_ORGANIZATION ( #238, #53 ) ;
#14 = EDGE_LOOP ( 'NONE', ( #27, #10 ) ) ;
#15 = PERSON_AND_ORGANIZATION ( #238, #53 ) ;
#16 = CC_DESIGN_DATE_AND_TIME_ASSIGNMENT ( #215, #141, ( #177 ) ) ;
#17 = PERSON_AND_ORGANIZATION ( #238, #53 ) ;
#18 = APPROVAL_DATE_TIME ( #40, #173 ) ;
#19 = APPROVAL_STATUS ( 'not_yet_approved' ) ;
#20 = ADVANCED_FACE ( 'NONE', ( #225 ), #203, .T. ) ;
#21 = APPROVAL_PERSON_ORGANIZATION ( #214, #173, #114 ) ;
#22 = CARTESIAN_POINT ( 'NONE',  ( 0.000000000000000000, 0.000000000000000000, 7.000000000000000000 ) ) ;
#23 = DIRECTION ( 'NONE',  ( 1.000000000000000000, 0.000000000000000000, 0.000000000000000000 ) ) ;
#24 = CARTESIAN_POINT ( 'NONE',  ( 0.000000000000000000, 0.000000000000000000, 0.000000000000000000 ) ) ;
#25 = CARTESIAN_POINT ( 'NONE',  ( 11.00000000000000000, 1.347111479062088405E-15, 0.000000000000000000 ) ) ;
#26 = DIRECTION ( 'NONE',  ( 1.000000000000000000, 0.000000000000000000, 0.000000000000000000 ) ) ;
#27 = ORIENTED_EDGE ( 'NONE', *, *, #210, .T. ) ;
#28 = ORIENTED_EDGE ( 'NONE', *, *, #206, .F. ) ;
#29 = DIRECTION ( 'NONE',  ( 1.000000000000000000, 0.000000000000000000, -0.000000000000000000 ) ) ;
#30 = DIRECTION ( 'NONE',  ( 1.000000000000000000, 0.000000000000000000, 0.000000000000000000 ) ) ;
#31 = AXIS2_PLACEMENT_3D ( 'NONE', #22, #8, #102 ) ;
#32 = ORIENTED_EDGE ( 'NONE', *, *, #145, .T. ) ;
#33 = MANIFOLD_SOLID_BREP ( 'Pøidat vysunutím3', #152 ) ;
#34 = EDGE_CURVE ( 'NONE', #36, #223, #123, .T. ) ;
#35 = DATE_AND_TIME ( #249, #46 ) ;
#36 = VERTEX_POINT ( 'NONE', #9 ) ;
#37 = DATE_TIME_ROLE ( 'creation_date' ) ;
#38 = EDGE_CURVE ( 'NONE', #57, #202, #87, .T. ) ;
#39 = AXIS2_PLACEMENT_3D ( 'NONE', #124, #43, #7 ) ;
#40 = DATE_AND_TIME ( #233, #111 ) ;
#41 = LOCAL_TIME ( 19, 7, 52.00000000000000000, #95 ) ;
#42 = PERSON_AND_ORGANIZATION_ROLE ( 'creator' ) ;
#43 = DIRECTION ( 'NONE',  ( 0.000000000000000000, 0.000000000000000000, 1.000000000000000000 ) ) ;
#44 = AXIS2_PLACEMENT_3D ( 'NONE', #117, #116, #103 ) ;
#45 = CARTESIAN_POINT ( 'NONE',  ( 8.000000000000000000, 9.797174393178825657E-16, 7.000000000000000000 ) ) ;
#46 = LOCAL_TIME ( 19, 7, 52.00000000000000000, #165 ) ;
#47 = CARTESIAN_POINT ( 'NONE',  ( -11.00000000000000000, 0.000000000000000000, 0.000000000000000000 ) ) ;
#48 = CARTESIAN_POINT ( 'NONE',  ( 0.000000000000000000, 0.000000000000000000, 0.000000000000000000 ) ) ;
#49 = CC_DESIGN_PERSON_AND_ORGANIZATION_ASSIGNMENT ( #13, #189, ( #148 ) ) ;
#50 = DIRECTION ( 'NONE',  ( -1.000000000000000000, 0.000000000000000000, 0.000000000000000000 ) ) ;
#51 = DIRECTION ( 'NONE',  ( -0.000000000000000000, -0.000000000000000000, -1.000000000000000000 ) ) ;
#52 = AXIS2_PLACEMENT_3D ( 'NONE', #237, #154, #158 ) ;
#53 = ORGANIZATION ( 'NEURÈENÝ', 'NEURÈENÝ', '' ) ;
#54 = EDGE_LOOP ( 'NONE', ( #226, #72 ) ) ;
#55 = FACE_OUTER_BOUND ( 'NONE', #84, .T. ) ;
#56 =( NAMED_UNIT ( * ) SI_UNIT ( $, .STERADIAN. ) SOLID_ANGLE_UNIT ( ) );
#57 = VERTEX_POINT ( 'NONE', #109 ) ;
#58 = COORDINATED_UNIVERSAL_TIME_OFFSET ( 1, 0, .AHEAD. ) ;
#59 = CALENDAR_DATE ( 2022, 7, 7 ) ;
#60 = EDGE_LOOP ( 'NONE', ( #212, #106 ) ) ;
#61 = PERSON_AND_ORGANIZATION ( #238, #53 ) ;
#62 = ORIENTED_EDGE ( 'NONE', *, *, #253, .T. ) ;
#63 = DIRECTION ( 'NONE',  ( 1.000000000000000000, 0.000000000000000000, -0.000000000000000000 ) ) ;
#64 = PLANE ( 'NONE',  #204 ) ;
#65 = DIRECTION ( 'NONE',  ( 0.000000000000000000, 0.000000000000000000, 1.000000000000000000 ) ) ;
#66 = ORIENTED_EDGE ( 'NONE', *, *, #210, .F. ) ;
#67 = FACE_BOUND ( 'NONE', #54, .T. ) ;
#68 = AXIS2_PLACEMENT_3D ( 'NONE', #163, #227, #29 ) ;
#69 = ADVANCED_FACE ( 'NONE', ( #67, #184 ), #122, .T. ) ;
#70 = UNCERTAINTY_MEASURE_WITH_UNIT (LENGTH_MEASURE( 1.000000000000000082E-05 ), #222, 'distance_accuracy_value', 'NONE');
#71 = ORIENTED_EDGE ( 'NONE', *, *, #224, .F. ) ;
#72 = ORIENTED_EDGE ( 'NONE', *, *, #159, .F. ) ;
#73 = SECURITY_CLASSIFICATION_LEVEL ( 'unclassified' ) ;
#74 = DIRECTION ( 'NONE',  ( 0.000000000000000000, 0.000000000000000000, 1.000000000000000000 ) ) ;
#75 = APPROVAL_DATE_TIME ( #35, #115 ) ;
#76 = CIRCLE ( 'NONE', #128, 11.00000000000000000 ) ;
#77 =( GEOMETRIC_REPRESENTATION_CONTEXT ( 3 ) GLOBAL_UNCERTAINTY_ASSIGNED_CONTEXT ( ( #70 ) ) GLOBAL_UNIT_ASSIGNED_CONTEXT ( ( #222, #252, #56 ) ) REPRESENTATION_CONTEXT ( 'NONE', 'WORKASPACE' ) );
#78 = ADVANCED_FACE ( 'NONE', ( #12 ), #107, .T. ) ;
#79 = AXIS2_PLACEMENT_3D ( 'NONE', #140, #74, #30 ) ;
#80 = DIRECTION ( 'NONE',  ( 1.000000000000000000, 0.000000000000000000, 0.000000000000000000 ) ) ;
#81 = CARTESIAN_POINT ( 'NONE',  ( 11.00000000000000000, 1.347111479062088405E-15, 7.000000000000000000 ) ) ;
#82 = CARTESIAN_POINT ( 'NONE',  ( 0.000000000000000000, 0.000000000000000000, 7.000000000000000000 ) ) ;
#83 = ADVANCED_FACE ( 'NONE', ( #55 ), #86, .T. ) ;
#84 = EDGE_LOOP ( 'NONE', ( #62, #162 ) ) ;
#85 = VECTOR ( 'NONE', #199, 1000.000000000000000 ) ;
#86 = PLANE ( 'NONE',  #39 ) ;
#87 = CIRCLE ( 'NONE', #79, 8.000000000000000000 ) ;
#88 = PRODUCT ( '54ed', '54ed', '', ( #185 ) ) ;
#89 = CARTESIAN_POINT ( 'NONE',  ( 0.000000000000000000, 0.000000000000000000, 207.0000000000000284 ) ) ;
#90 = ADVANCED_BREP_SHAPE_REPRESENTATION ( '54ed', ( #33, #197 ), #77 ) ;
#91 = PERSON_AND_ORGANIZATION ( #238, #53 ) ;
#92 = CARTESIAN_POINT ( 'NONE',  ( 0.000000000000000000, 0.000000000000000000, 207.0000000000000284 ) ) ;
#93 = APPROVAL_STATUS ( 'not_yet_approved' ) ;
#94 = CC_DESIGN_SECURITY_CLASSIFICATION ( #177, ( #138 ) ) ;
#95 = COORDINATED_UNIVERSAL_TIME_OFFSET ( 1, 0, .AHEAD. ) ;
#96 = COORDINATED_UNIVERSAL_TIME_OFFSET ( 1, 0, .AHEAD. ) ;
#97 = EDGE_CURVE ( 'NONE', #167, #164, #108, .T. ) ;
#98 = DIRECTION ( 'NONE',  ( 1.000000000000000000, 0.000000000000000000, 0.000000000000000000 ) ) ;
#99 = CIRCLE ( 'NONE', #240, 11.00000000000000000 ) ;
#100 = CYLINDRICAL_SURFACE ( 'NONE', #251, 11.00000000000000000 ) ;
#101 = FACE_OUTER_BOUND ( 'NONE', #60, .T. ) ;
#102 = DIRECTION ( 'NONE',  ( 1.000000000000000000, 0.000000000000000000, 0.000000000000000000 ) ) ;
#103 = DIRECTION ( 'NONE',  ( 1.000000000000000000, 0.000000000000000000, 0.000000000000000000 ) ) ;
#104 = CARTESIAN_POINT ( 'NONE',  ( 0.000000000000000000, 0.000000000000000000, 7.000000000000000000 ) ) ;
#105 = APPROVAL_PERSON_ORGANIZATION ( #17, #1, #169 ) ;
#106 = ORIENTED_EDGE ( 'NONE', *, *, #200, .F. ) ;
#107 = CYLINDRICAL_SURFACE ( 'NONE', #149, 8.000000000000000000 ) ;
#108 = CIRCLE ( 'NONE', #44, 8.000000000000000000 ) ;
#109 = CARTESIAN_POINT ( 'NONE',  ( 8.000000000000000000, 9.797174393178825657E-16, 207.0000000000000284 ) ) ;
#110 = EDGE_LOOP ( 'NONE', ( #136, #32, #242, #71 ) ) ;
#111 = LOCAL_TIME ( 19, 7, 52.00000000000000000, #58 ) ;
#112 = PERSON_AND_ORGANIZATION ( #238, #53 ) ;
#113 = PERSON_AND_ORGANIZATION_ROLE ( 'design_supplier' ) ;
#114 = APPROVAL_ROLE ( '' ) ;
#115 = APPROVAL ( #143, 'NEURÈENÝ' ) ;
#116 = DIRECTION ( 'NONE',  ( 0.000000000000000000, 0.000000000000000000, 1.000000000000000000 ) ) ;
#117 = CARTESIAN_POINT ( 'NONE',  ( 0.000000000000000000, 0.000000000000000000, 7.000000000000000000 ) ) ;
#118 = DIRECTION ( 'NONE',  ( -0.000000000000000000, -0.000000000000000000, -1.000000000000000000 ) ) ;
#119 = LINE ( 'NONE', #81, #130 ) ;
#120 = ORIENTED_EDGE ( 'NONE', *, *, #224, .T. ) ;
#121 = CARTESIAN_POINT ( 'NONE',  ( -11.00000000000000000, 0.000000000000000000, 7.000000000000000000 ) ) ;
#122 = PLANE ( 'NONE',  #68 ) ;
#123 = LINE ( 'NONE', #121, #192 ) ;
#124 = CARTESIAN_POINT ( 'NONE',  ( 0.000000000000000000, 0.000000000000000000, 207.0000000000000284 ) ) ;
#125 = PERSON_AND_ORGANIZATION_ROLE ( 'classification_officer' ) ;
#126 = AXIS2_PLACEMENT_3D ( 'NONE', #48, #134, #26 ) ;
#127 = CALENDAR_DATE ( 2022, 7, 7 ) ;
#128 = AXIS2_PLACEMENT_3D ( 'NONE', #104, #178, #80 ) ;
#129 = CARTESIAN_POINT ( 'NONE',  ( -8.000000000000000000, 0.000000000000000000, 207.0000000000000284 ) ) ;
#130 = VECTOR ( 'NONE', #156, 1000.000000000000000 ) ;
#131 = CYLINDRICAL_SURFACE ( 'NONE', #52, 11.00000000000000000 ) ;
#132 = LINE ( 'NONE', #129, #190 ) ;
#133 = EDGE_CURVE ( 'NONE', #223, #229, #183, .T. ) ;
#134 = DIRECTION ( 'NONE',  ( 0.000000000000000000, 0.000000000000000000, 1.000000000000000000 ) ) ;
#135 = EDGE_LOOP ( 'NONE', ( #193, #66, #186, #208 ) ) ;
#136 = ORIENTED_EDGE ( 'NONE', *, *, #38, .F. ) ;
#137 = AXIS2_PLACEMENT_3D ( 'NONE', #221, #218, #176 ) ;
#138 = PRODUCT_DEFINITION_FORMATION_WITH_SPECIFIED_SOURCE ( 'LIBOVOLNÝ', '', #88, .NOT_KNOWN. ) ;
#139 = EDGE_LOOP ( 'NONE', ( #28, #151, #232, #248 ) ) ;
#140 = CARTESIAN_POINT ( 'NONE',  ( 0.000000000000000000, 0.000000000000000000, 207.0000000000000284 ) ) ;
#141 = DATE_TIME_ROLE ( 'classification_date' ) ;
#142 = ORIENTED_EDGE ( 'NONE', *, *, #253, .F. ) ;
#143 = APPROVAL_STATUS ( 'not_yet_approved' ) ;
#144 = CC_DESIGN_APPROVAL ( #115, ( #138 ) ) ;
#145 = EDGE_CURVE ( 'NONE', #57, #164, #195, .T. ) ;
#146 = CARTESIAN_POINT ( 'NONE',  ( 0.000000000000000000, 0.000000000000000000, 0.000000000000000000 ) ) ;
#147 = SHAPE_DEFINITION_REPRESENTATION ( #11, #90 ) ;
#148 = PRODUCT_DEFINITION ( 'NEZNÁMÝ', '', #138, #250 ) ;
#149 = AXIS2_PLACEMENT_3D ( 'NONE', #89, #182, #246 ) ;
#150 = APPROVAL_DATE_TIME ( #213, #1 ) ;
#151 = ORIENTED_EDGE ( 'NONE', *, *, #155, .T. ) ;
#152 = CLOSED_SHELL ( 'NONE', ( #78, #171, #217, #69, #220, #20, #83 ) ) ;
#153 = CC_DESIGN_APPROVAL ( #173, ( #148 ) ) ;
#154 = DIRECTION ( 'NONE',  ( -0.000000000000000000, -0.000000000000000000, -1.000000000000000000 ) ) ;
#155 = EDGE_CURVE ( 'NONE', #243, #229, #119, .T. ) ;
#156 = DIRECTION ( 'NONE',  ( -0.000000000000000000, -0.000000000000000000, -1.000000000000000000 ) ) ;
#157 = CC_DESIGN_DATE_AND_TIME_ASSIGNMENT ( #254, #37, ( #148 ) ) ;
#158 = DIRECTION ( 'NONE',  ( -1.000000000000000000, 0.000000000000000000, 0.000000000000000000 ) ) ;
#159 = EDGE_CURVE ( 'NONE', #164, #167, #234, .T. ) ;
#160 = DIRECTION ( 'NONE',  ( -1.000000000000000000, 0.000000000000000000, 0.000000000000000000 ) ) ;
#161 = CC_DESIGN_PERSON_AND_ORGANIZATION_ASSIGNMENT ( #112, #42, ( #138 ) ) ;
#162 = ORIENTED_EDGE ( 'NONE', *, *, #38, .T. ) ;
#163 = CARTESIAN_POINT ( 'NONE',  ( 0.000000000000000000, 0.000000000000000000, 7.000000000000000000 ) ) ;
#164 = VERTEX_POINT ( 'NONE', #45 ) ;
#165 = COORDINATED_UNIVERSAL_TIME_OFFSET ( 1, 0, .AHEAD. ) ;
#166 = CC_DESIGN_PERSON_AND_ORGANIZATION_ASSIGNMENT ( #61, #125, ( #177 ) ) ;
#167 = VERTEX_POINT ( 'NONE', #175 ) ;
#168 = DIRECTION ( 'NONE',  ( 0.000000000000000000, 0.000000000000000000, 1.000000000000000000 ) ) ;
#169 = APPROVAL_ROLE ( '' ) ;
#170 = ORIENTED_EDGE ( 'NONE', *, *, #145, .F. ) ;
#171 = ADVANCED_FACE ( 'NONE', ( #2 ), #100, .T. ) ;
#172 = DIRECTION ( 'NONE',  ( 0.000000000000000000, 0.000000000000000000, 1.000000000000000000 ) ) ;
#173 = APPROVAL ( #93, 'NEURÈENÝ' ) ;
#174 = DIRECTION ( 'NONE',  ( 0.000000000000000000, 0.000000000000000000, 1.000000000000000000 ) ) ;
#175 = CARTESIAN_POINT ( 'NONE',  ( -8.000000000000000000, 0.000000000000000000, 7.000000000000000000 ) ) ;
#176 = DIRECTION ( 'NONE',  ( 1.000000000000000000, 0.000000000000000000, 0.000000000000000000 ) ) ;
#177 = SECURITY_CLASSIFICATION ( '', '', #73 ) ;
#178 = DIRECTION ( 'NONE',  ( 0.000000000000000000, 0.000000000000000000, 1.000000000000000000 ) ) ;
#179 = DIRECTION ( 'NONE',  ( -0.000000000000000000, -0.000000000000000000, -1.000000000000000000 ) ) ;
#180 = PRODUCT_RELATED_PRODUCT_CATEGORY ( 'detail', '', ( #88 ) ) ;
#181 = APPLICATION_CONTEXT ( 'configuration controlled 3d designs of mechanical parts and assemblies' ) ;
#182 = DIRECTION ( 'NONE',  ( -0.000000000000000000, -0.000000000000000000, -1.000000000000000000 ) ) ;
#183 = CIRCLE ( 'NONE', #126, 11.00000000000000000 ) ;
#184 = FACE_OUTER_BOUND ( 'NONE', #14, .T. ) ;
#185 = MECHANICAL_CONTEXT ( 'NONE', #236, 'mechanical' ) ;
#186 = ORIENTED_EDGE ( 'NONE', *, *, #34, .T. ) ;
#187 = COORDINATED_UNIVERSAL_TIME_OFFSET ( 1, 0, .AHEAD. ) ;
#188 = AXIS2_PLACEMENT_3D ( 'NONE', #92, #179, #50 ) ;
#189 = PERSON_AND_ORGANIZATION_ROLE ( 'creator' ) ;
#190 = VECTOR ( 'NONE', #118, 1000.000000000000000 ) ;
#191 = PERSON_AND_ORGANIZATION_ROLE ( 'design_owner' ) ;
#192 = VECTOR ( 'NONE', #51, 1000.000000000000000 ) ;
#193 = ORIENTED_EDGE ( 'NONE', *, *, #155, .F. ) ;
#194 = CC_DESIGN_PERSON_AND_ORGANIZATION_ASSIGNMENT ( #15, #191, ( #88 ) ) ;
#195 = LINE ( 'NONE', #235, #85 ) ;
#196 = LOCAL_TIME ( 19, 7, 52.00000000000000000, #96 ) ;
#197 = AXIS2_PLACEMENT_3D ( 'NONE', #146, #168, #98 ) ;
#198 = FACE_OUTER_BOUND ( 'NONE', #135, .T. ) ;
#199 = DIRECTION ( 'NONE',  ( -0.000000000000000000, -0.000000000000000000, -1.000000000000000000 ) ) ;
#200 = EDGE_CURVE ( 'NONE', #229, #223, #3, .T. ) ;
#201 = CARTESIAN_POINT ( 'NONE',  ( 0.000000000000000000, 0.000000000000000000, 7.000000000000000000 ) ) ;
#202 = VERTEX_POINT ( 'NONE', #5 ) ;
#203 = CYLINDRICAL_SURFACE ( 'NONE', #188, 8.000000000000000000 ) ;
#204 = AXIS2_PLACEMENT_3D ( 'NONE', #239, #65, #63 ) ;
#205 = APPROVAL_PERSON_ORGANIZATION ( #247, #115, #230 ) ;
#206 = EDGE_CURVE ( 'NONE', #243, #36, #99, .T. ) ;
#207 = ORIENTED_EDGE ( 'NONE', *, *, #97, .T. ) ;
#208 = ORIENTED_EDGE ( 'NONE', *, *, #133, .T. ) ;
#209 = AXIS2_PLACEMENT_3D ( 'NONE', #24, #172, #23 ) ;
#210 = EDGE_CURVE ( 'NONE', #36, #243, #76, .T. ) ;
#211 = APPLICATION_PROTOCOL_DEFINITION ( 'international standard', 'config_control_design', 1994, #236 ) ;
#212 = ORIENTED_EDGE ( 'NONE', *, *, #133, .F. ) ;
#213 = DATE_AND_TIME ( #59, #196 ) ;
#214 = PERSON_AND_ORGANIZATION ( #238, #53 ) ;
#215 = DATE_AND_TIME ( #127, #255 ) ;
#216 = CC_DESIGN_PERSON_AND_ORGANIZATION_ASSIGNMENT ( #91, #113, ( #138 ) ) ;
#217 = ADVANCED_FACE ( 'NONE', ( #198 ), #131, .T. ) ;
#218 = DIRECTION ( 'NONE',  ( 0.000000000000000000, 0.000000000000000000, 1.000000000000000000 ) ) ;
#219 = CARTESIAN_POINT ( 'NONE',  ( 11.00000000000000000, 1.347111479062088405E-15, 7.000000000000000000 ) ) ;
#220 = ADVANCED_FACE ( 'NONE', ( #101 ), #64, .F. ) ;
#221 = CARTESIAN_POINT ( 'NONE',  ( 0.000000000000000000, 0.000000000000000000, 207.0000000000000284 ) ) ;
#222 =( LENGTH_UNIT ( ) NAMED_UNIT ( * ) SI_UNIT ( .MILLI., .METRE. ) );
#223 = VERTEX_POINT ( 'NONE', #47 ) ;
#224 = EDGE_CURVE ( 'NONE', #202, #167, #132, .T. ) ;
#225 = FACE_OUTER_BOUND ( 'NONE', #244, .T. ) ;
#226 = ORIENTED_EDGE ( 'NONE', *, *, #97, .F. ) ;
#227 = DIRECTION ( 'NONE',  ( 0.000000000000000000, 0.000000000000000000, 1.000000000000000000 ) ) ;
#228 = CALENDAR_DATE ( 2022, 7, 7 ) ;
#229 = VERTEX_POINT ( 'NONE', #25 ) ;
#230 = APPROVAL_ROLE ( '' ) ;
#231 = APPLICATION_PROTOCOL_DEFINITION ( 'international standard', 'config_control_design', 1994, #181 ) ;
#232 = ORIENTED_EDGE ( 'NONE', *, *, #200, .T. ) ;
#233 = CALENDAR_DATE ( 2022, 7, 7 ) ;
#234 = CIRCLE ( 'NONE', #31, 8.000000000000000000 ) ;
#235 = CARTESIAN_POINT ( 'NONE',  ( 8.000000000000000000, 9.797174393178825657E-16, 207.0000000000000284 ) ) ;
#236 = APPLICATION_CONTEXT ( 'configuration controlled 3d designs of mechanical parts and assemblies' ) ;
#237 = CARTESIAN_POINT ( 'NONE',  ( 0.000000000000000000, 0.000000000000000000, 7.000000000000000000 ) ) ;
#238 = PERSON ( 'NEURÈENÝ', 'NEURÈENÝ', 'NEURÈENÝ', ('NEURÈENÝ'), ('NEURÈENÝ'), ('NEURÈENÝ') ) ;
#239 = CARTESIAN_POINT ( 'NONE',  ( 0.000000000000000000, 0.000000000000000000, 0.000000000000000000 ) ) ;
#240 = AXIS2_PLACEMENT_3D ( 'NONE', #82, #174, #241 ) ;
#241 = DIRECTION ( 'NONE',  ( 1.000000000000000000, 0.000000000000000000, 0.000000000000000000 ) ) ;
#242 = ORIENTED_EDGE ( 'NONE', *, *, #159, .T. ) ;
#243 = VERTEX_POINT ( 'NONE', #219 ) ;
#244 = EDGE_LOOP ( 'NONE', ( #170, #142, #120, #207 ) ) ;
#245 = CC_DESIGN_APPROVAL ( #1, ( #177 ) ) ;
#246 = DIRECTION ( 'NONE',  ( -1.000000000000000000, 0.000000000000000000, 0.000000000000000000 ) ) ;
#247 = PERSON_AND_ORGANIZATION ( #238, #53 ) ;
#248 = ORIENTED_EDGE ( 'NONE', *, *, #34, .F. ) ;
#249 = CALENDAR_DATE ( 2022, 7, 7 ) ;
#250 = DESIGN_CONTEXT ( 'detailed design', #181, 'design' ) ;
#251 = AXIS2_PLACEMENT_3D ( 'NONE', #201, #6, #160 ) ;
#252 =( NAMED_UNIT ( * ) PLANE_ANGLE_UNIT ( ) SI_UNIT ( $, .RADIAN. ) );
#253 = EDGE_CURVE ( 'NONE', #202, #57, #4, .T. ) ;
#254 = DATE_AND_TIME ( #228, #41 ) ;
#255 = LOCAL_TIME ( 19, 7, 52.00000000000000000, #187 ) ;
ENDSEC;
END-ISO-10303-21;
