ISO-10303-21;
HEADER;
FILE_DESCRIPTION (( 'STEP AP203' ),
    '1' );
FILE_NAME ('bbab.STEP',
    '2022-07-07T17:23:37',
    ( '' ),
    ( '' ),
    'SwSTEP 2.0',
    'SolidWorks 2019',
    '' );
FILE_SCHEMA (( 'CONFIG_CONTROL_DESIGN' ));
ENDSEC;

DATA;
#1 = APPROVAL_PERSON_ORGANIZATION ( #177, #35, #47 ) ;
#2 = ORIENTED_EDGE ( 'NONE', *, *, #104, .T. ) ;
#3 = VERTEX_POINT ( 'NONE', #31 ) ;
#4 = CC_DESIGN_SECURITY_CLASSIFICATION ( #23, ( #194 ) ) ;
#5 = EDGE_LOOP ( 'NONE', ( #95, #244 ) ) ;
#6 = APPROVAL ( #173, 'NEURÈENÝ' ) ;
#7 = EDGE_LOOP ( 'NONE', ( #220, #45 ) ) ;
#8 = ADVANCED_BREP_SHAPE_REPRESENTATION ( 'bbab', ( #223, #113 ), #98 ) ;
#9 = DIRECTION ( 'NONE',  ( -0.000000000000000000, -0.000000000000000000, -1.000000000000000000 ) ) ;
#10 = AXIS2_PLACEMENT_3D ( 'NONE', #232, #82, #61 ) ;
#11 = ADVANCED_FACE ( 'NONE', ( #52 ), #242, .T. ) ;
#12 = ORIENTED_EDGE ( 'NONE', *, *, #231, .T. ) ;
#13 = FACE_BOUND ( 'NONE', #7, .T. ) ;
#14 = DIRECTION ( 'NONE',  ( -0.000000000000000000, -0.000000000000000000, -1.000000000000000000 ) ) ;
#15 = DIRECTION ( 'NONE',  ( 1.000000000000000000, 0.000000000000000000, 0.000000000000000000 ) ) ;
#16 = CARTESIAN_POINT ( 'NONE',  ( 0.000000000000000000, 0.000000000000000000, 5.000000000000000000 ) ) ;
#17 = APPLICATION_PROTOCOL_DEFINITION ( 'international standard', 'config_control_design', 1994, #178 ) ;
#18 = CC_DESIGN_PERSON_AND_ORGANIZATION_ASSIGNMENT ( #218, #139, ( #194 ) ) ;
#19 = AXIS2_PLACEMENT_3D ( 'NONE', #58, #149, #225 ) ;
#20 = PRODUCT_DEFINITION_SHAPE ( 'NONE', 'NONE',  #81 ) ;
#21 = DIRECTION ( 'NONE',  ( 1.000000000000000000, 0.000000000000000000, 0.000000000000000000 ) ) ;
#22 = EDGE_CURVE ( 'NONE', #221, #24, #55, .T. ) ;
#23 = SECURITY_CLASSIFICATION ( '', '', #241 ) ;
#24 = VERTEX_POINT ( 'NONE', #112 ) ;
#25 = PERSON_AND_ORGANIZATION ( #51, #176 ) ;
#26 = DIRECTION ( 'NONE',  ( 1.000000000000000000, 0.000000000000000000, 0.000000000000000000 ) ) ;
#27 = CIRCLE ( 'NONE', #228, 5.250000000000000000 ) ;
#28 = VERTEX_POINT ( 'NONE', #167 ) ;
#29 = EDGE_LOOP ( 'NONE', ( #92, #108 ) ) ;
#30 = ADVANCED_FACE ( 'NONE', ( #93 ), #184, .T. ) ;
#31 = CARTESIAN_POINT ( 'NONE',  ( 5.250000000000000000, 6.429395695523604153E-16, 505.0000000000000000 ) ) ;
#32 = CARTESIAN_POINT ( 'NONE',  ( -5.250000000000000000, 0.000000000000000000, 5.000000000000000000 ) ) ;
#33 = CARTESIAN_POINT ( 'NONE',  ( -8.000000000000000000, 0.000000000000000000, 5.000000000000000000 ) ) ;
#34 = DIRECTION ( 'NONE',  ( 1.000000000000000000, 0.000000000000000000, -0.000000000000000000 ) ) ;
#35 = APPROVAL ( #43, 'NEURÈENÝ' ) ;
#36 = DIRECTION ( 'NONE',  ( 0.000000000000000000, 0.000000000000000000, 1.000000000000000000 ) ) ;
#37 = CIRCLE ( 'NONE', #198, 8.000000000000000000 ) ;
#38 = CARTESIAN_POINT ( 'NONE',  ( 0.000000000000000000, 0.000000000000000000, 0.000000000000000000 ) ) ;
#39 = CALENDAR_DATE ( 2022, 7, 7 ) ;
#40 = DIRECTION ( 'NONE',  ( 0.000000000000000000, 0.000000000000000000, 1.000000000000000000 ) ) ;
#41 =( LENGTH_UNIT ( ) NAMED_UNIT ( * ) SI_UNIT ( .MILLI., .METRE. ) );
#42 = EDGE_CURVE ( 'NONE', #221, #201, #175, .T. ) ;
#43 = APPROVAL_STATUS ( 'not_yet_approved' ) ;
#44 = CALENDAR_DATE ( 2022, 7, 7 ) ;
#45 = ORIENTED_EDGE ( 'NONE', *, *, #192, .F. ) ;
#46 = APPROVAL_PERSON_ORGANIZATION ( #235, #216, #85 ) ;
#47 = APPROVAL_ROLE ( '' ) ;
#48 = UNCERTAINTY_MEASURE_WITH_UNIT (LENGTH_MEASURE( 1.000000000000000082E-05 ), #41, 'distance_accuracy_value', 'NONE');
#49 = EDGE_CURVE ( 'NONE', #24, #142, #37, .T. ) ;
#50 = ORIENTED_EDGE ( 'NONE', *, *, #74, .T. ) ;
#51 = PERSON ( 'NEURÈENÝ', 'NEURÈENÝ', 'NEURÈENÝ', ('NEURÈENÝ'), ('NEURÈENÝ'), ('NEURÈENÝ') ) ;
#52 = FACE_OUTER_BOUND ( 'NONE', #129, .T. ) ;
#53 = LOCAL_TIME ( 19, 23, 37.00000000000000000, #160 ) ;
#54 = PRODUCT_RELATED_PRODUCT_CATEGORY ( 'detail', '', ( #197 ) ) ;
#55 = LINE ( 'NONE', #205, #222 ) ;
#56 = CARTESIAN_POINT ( 'NONE',  ( 0.000000000000000000, 0.000000000000000000, 5.000000000000000000 ) ) ;
#57 = CARTESIAN_POINT ( 'NONE',  ( 5.250000000000000000, 6.429395695523604153E-16, 505.0000000000000000 ) ) ;
#58 = CARTESIAN_POINT ( 'NONE',  ( 0.000000000000000000, 0.000000000000000000, 505.0000000000000000 ) ) ;
#59 = EDGE_CURVE ( 'NONE', #201, #221, #78, .T. ) ;
#60 = CARTESIAN_POINT ( 'NONE',  ( 0.000000000000000000, 0.000000000000000000, 0.000000000000000000 ) ) ;
#61 = DIRECTION ( 'NONE',  ( 1.000000000000000000, 0.000000000000000000, -0.000000000000000000 ) ) ;
#62 = COORDINATED_UNIVERSAL_TIME_OFFSET ( 1, 0, .AHEAD. ) ;
#63 = AXIS2_PLACEMENT_3D ( 'NONE', #56, #150, #226 ) ;
#64 = DIRECTION ( 'NONE',  ( 1.000000000000000000, 0.000000000000000000, 0.000000000000000000 ) ) ;
#65 = EDGE_CURVE ( 'NONE', #201, #142, #233, .T. ) ;
#66 = DIRECTION ( 'NONE',  ( 0.000000000000000000, 0.000000000000000000, 1.000000000000000000 ) ) ;
#67 = APPROVAL_DATE_TIME ( #236, #216 ) ;
#68 = AXIS2_PLACEMENT_3D ( 'NONE', #16, #40, #34 ) ;
#69 = APPROVAL_DATE_TIME ( #215, #6 ) ;
#70 = COORDINATED_UNIVERSAL_TIME_OFFSET ( 1, 0, .AHEAD. ) ;
#71 = APPROVAL_PERSON_ORGANIZATION ( #101, #6, #83 ) ;
#72 = VERTEX_POINT ( 'NONE', #185 ) ;
#73 = DIRECTION ( 'NONE',  ( 0.000000000000000000, 0.000000000000000000, 1.000000000000000000 ) ) ;
#74 = EDGE_CURVE ( 'NONE', #72, #181, #79, .T. ) ;
#75 = ORIENTED_EDGE ( 'NONE', *, *, #65, .F. ) ;
#76 = ORIENTED_EDGE ( 'NONE', *, *, #22, .T. ) ;
#77 = FACE_OUTER_BOUND ( 'NONE', #124, .T. ) ;
#78 = CIRCLE ( 'NONE', #188, 8.000000000000000000 ) ;
#79 = LINE ( 'NONE', #210, #87 ) ;
#80 = DIRECTION ( 'NONE',  ( 0.000000000000000000, 0.000000000000000000, 1.000000000000000000 ) ) ;
#81 = PRODUCT_DEFINITION ( 'NEZNÁMÝ', '', #194, #106 ) ;
#82 = DIRECTION ( 'NONE',  ( 0.000000000000000000, 0.000000000000000000, 1.000000000000000000 ) ) ;
#83 = APPROVAL_ROLE ( '' ) ;
#84 = CARTESIAN_POINT ( 'NONE',  ( 0.000000000000000000, 0.000000000000000000, 0.000000000000000000 ) ) ;
#85 = APPROVAL_ROLE ( '' ) ;
#86 = CC_DESIGN_APPROVAL ( #6, ( #194 ) ) ;
#87 = VECTOR ( 'NONE', #133, 1000.000000000000000 ) ;
#88 = CALENDAR_DATE ( 2022, 7, 7 ) ;
#89 = LOCAL_TIME ( 19, 23, 37.00000000000000000, #70 ) ;
#90 = ORIENTED_EDGE ( 'NONE', *, *, #231, .F. ) ;
#91 = DIRECTION ( 'NONE',  ( 1.000000000000000000, 0.000000000000000000, 0.000000000000000000 ) ) ;
#92 = ORIENTED_EDGE ( 'NONE', *, *, #59, .T. ) ;
#93 = FACE_OUTER_BOUND ( 'NONE', #111, .T. ) ;
#94 = CIRCLE ( 'NONE', #163, 5.250000000000000000 ) ;
#95 = ORIENTED_EDGE ( 'NONE', *, *, #158, .F. ) ;
#96 = DIRECTION ( 'NONE',  ( 0.000000000000000000, 0.000000000000000000, 1.000000000000000000 ) ) ;
#97 = CARTESIAN_POINT ( 'NONE',  ( 0.000000000000000000, 0.000000000000000000, 505.0000000000000000 ) ) ;
#98 =( GEOMETRIC_REPRESENTATION_CONTEXT ( 3 ) GLOBAL_UNCERTAINTY_ASSIGNED_CONTEXT ( ( #48 ) ) GLOBAL_UNIT_ASSIGNED_CONTEXT ( ( #41, #137, #250 ) ) REPRESENTATION_CONTEXT ( 'NONE', 'WORKASPACE' ) );
#99 = CC_DESIGN_DATE_AND_TIME_ASSIGNMENT ( #141, #180, ( #23 ) ) ;
#100 = DIRECTION ( 'NONE',  ( -0.000000000000000000, -0.000000000000000000, -1.000000000000000000 ) ) ;
#101 = PERSON_AND_ORGANIZATION ( #51, #176 ) ;
#102 = DIRECTION ( 'NONE',  ( 0.000000000000000000, 0.000000000000000000, 1.000000000000000000 ) ) ;
#103 = PERSON_AND_ORGANIZATION ( #51, #176 ) ;
#104 = EDGE_CURVE ( 'NONE', #72, #3, #94, .T. ) ;
#105 = AXIS2_PLACEMENT_3D ( 'NONE', #60, #134, #152 ) ;
#106 = DESIGN_CONTEXT ( 'detailed design', #178, 'design' ) ;
#107 = ORIENTED_EDGE ( 'NONE', *, *, #42, .F. ) ;
#108 = ORIENTED_EDGE ( 'NONE', *, *, #42, .T. ) ;
#109 = CARTESIAN_POINT ( 'NONE',  ( 0.000000000000000000, 0.000000000000000000, 5.000000000000000000 ) ) ;
#110 = EDGE_LOOP ( 'NONE', ( #162, #206, #50, #126 ) ) ;
#111 = EDGE_LOOP ( 'NONE', ( #90, #127, #164, #243 ) ) ;
#112 = CARTESIAN_POINT ( 'NONE',  ( 8.000000000000000000, 9.797174393178825657E-16, 0.000000000000000000 ) ) ;
#113 = AXIS2_PLACEMENT_3D ( 'NONE', #84, #102, #21 ) ;
#114 = ADVANCED_FACE ( 'NONE', ( #168 ), #208, .T. ) ;
#115 = DIRECTION ( 'NONE',  ( -0.000000000000000000, -0.000000000000000000, -1.000000000000000000 ) ) ;
#116 = CARTESIAN_POINT ( 'NONE',  ( 0.000000000000000000, 0.000000000000000000, 5.000000000000000000 ) ) ;
#117 = LOCAL_TIME ( 19, 23, 37.00000000000000000, #157 ) ;
#118 = PERSON_AND_ORGANIZATION_ROLE ( 'design_owner' ) ;
#119 = CARTESIAN_POINT ( 'NONE',  ( -8.000000000000000000, 0.000000000000000000, 0.000000000000000000 ) ) ;
#120 = DATE_TIME_ROLE ( 'creation_date' ) ;
#121 = CALENDAR_DATE ( 2022, 7, 7 ) ;
#122 = MECHANICAL_CONTEXT ( 'NONE', #239, 'mechanical' ) ;
#123 = CC_DESIGN_APPROVAL ( #216, ( #81 ) ) ;
#124 = EDGE_LOOP ( 'NONE', ( #166, #199, #128, #224 ) ) ;
#125 = APPROVAL_DATE_TIME ( #196, #35 ) ;
#126 = ORIENTED_EDGE ( 'NONE', *, *, #240, .T. ) ;
#127 = ORIENTED_EDGE ( 'NONE', *, *, #213, .T. ) ;
#128 = ORIENTED_EDGE ( 'NONE', *, *, #65, .T. ) ;
#129 = EDGE_LOOP ( 'NONE', ( #107, #76, #183, #75 ) ) ;
#130 = PLANE ( 'NONE',  #68 ) ;
#131 = CARTESIAN_POINT ( 'NONE',  ( 0.000000000000000000, 0.000000000000000000, 0.000000000000000000 ) ) ;
#132 = AXIS2_PLACEMENT_3D ( 'NONE', #38, #209, #229 ) ;
#133 = DIRECTION ( 'NONE',  ( -0.000000000000000000, -0.000000000000000000, -1.000000000000000000 ) ) ;
#134 = DIRECTION ( 'NONE',  ( 0.000000000000000000, 0.000000000000000000, 1.000000000000000000 ) ) ;
#135 = CIRCLE ( 'NONE', #105, 8.000000000000000000 ) ;
#136 = LINE ( 'NONE', #57, #217 ) ;
#137 =( NAMED_UNIT ( * ) PLANE_ANGLE_UNIT ( ) SI_UNIT ( $, .RADIAN. ) );
#138 = CIRCLE ( 'NONE', #156, 5.250000000000000000 ) ;
#139 = PERSON_AND_ORGANIZATION_ROLE ( 'creator' ) ;
#140 = COORDINATED_UNIVERSAL_TIME_OFFSET ( 1, 0, .AHEAD. ) ;
#141 = DATE_AND_TIME ( #44, #89 ) ;
#142 = VERTEX_POINT ( 'NONE', #119 ) ;
#143 = PERSON_AND_ORGANIZATION_ROLE ( 'design_supplier' ) ;
#144 = DIRECTION ( 'NONE',  ( 0.000000000000000000, 0.000000000000000000, 1.000000000000000000 ) ) ;
#145 = ADVANCED_FACE ( 'NONE', ( #13, #172 ), #130, .T. ) ;
#146 = CARTESIAN_POINT ( 'NONE',  ( 0.000000000000000000, 0.000000000000000000, 5.000000000000000000 ) ) ;
#147 = AXIS2_PLACEMENT_3D ( 'NONE', #146, #245, #204 ) ;
#148 = EDGE_LOOP ( 'NONE', ( #2, #12 ) ) ;
#149 = DIRECTION ( 'NONE',  ( -0.000000000000000000, -0.000000000000000000, -1.000000000000000000 ) ) ;
#150 = DIRECTION ( 'NONE',  ( 0.000000000000000000, 0.000000000000000000, 1.000000000000000000 ) ) ;
#151 = CARTESIAN_POINT ( 'NONE',  ( 0.000000000000000000, 0.000000000000000000, 505.0000000000000000 ) ) ;
#152 = DIRECTION ( 'NONE',  ( 1.000000000000000000, 0.000000000000000000, 0.000000000000000000 ) ) ;
#153 = FACE_OUTER_BOUND ( 'NONE', #148, .T. ) ;
#154 = PERSON_AND_ORGANIZATION_ROLE ( 'creator' ) ;
#155 = DIRECTION ( 'NONE',  ( -1.000000000000000000, 0.000000000000000000, 0.000000000000000000 ) ) ;
#156 = AXIS2_PLACEMENT_3D ( 'NONE', #249, #80, #230 ) ;
#157 = COORDINATED_UNIVERSAL_TIME_OFFSET ( 1, 0, .AHEAD. ) ;
#158 = EDGE_CURVE ( 'NONE', #142, #24, #135, .T. ) ;
#159 = APPLICATION_PROTOCOL_DEFINITION ( 'international standard', 'config_control_design', 1994, #239 ) ;
#160 = COORDINATED_UNIVERSAL_TIME_OFFSET ( 1, 0, .AHEAD. ) ;
#161 = AXIS2_PLACEMENT_3D ( 'NONE', #116, #100, #155 ) ;
#162 = ORIENTED_EDGE ( 'NONE', *, *, #213, .F. ) ;
#163 = AXIS2_PLACEMENT_3D ( 'NONE', #151, #96, #64 ) ;
#164 = ORIENTED_EDGE ( 'NONE', *, *, #192, .T. ) ;
#165 = LOCAL_TIME ( 19, 23, 37.00000000000000000, #140 ) ;
#166 = ORIENTED_EDGE ( 'NONE', *, *, #22, .F. ) ;
#167 = CARTESIAN_POINT ( 'NONE',  ( 5.250000000000000000, 6.429395695523604153E-16, 5.000000000000000000 ) ) ;
#168 = FACE_OUTER_BOUND ( 'NONE', #110, .T. ) ;
#169 = AXIS2_PLACEMENT_3D ( 'NONE', #193, #66, #15 ) ;
#170 = CC_DESIGN_PERSON_AND_ORGANIZATION_ASSIGNMENT ( #103, #118, ( #197 ) ) ;
#171 = DIRECTION ( 'NONE',  ( -1.000000000000000000, 0.000000000000000000, 0.000000000000000000 ) ) ;
#172 = FACE_OUTER_BOUND ( 'NONE', #29, .T. ) ;
#173 = APPROVAL_STATUS ( 'not_yet_approved' ) ;
#174 = CC_DESIGN_DATE_AND_TIME_ASSIGNMENT ( #252, #120, ( #81 ) ) ;
#175 = CIRCLE ( 'NONE', #63, 8.000000000000000000 ) ;
#176 = ORGANIZATION ( 'NEURÈENÝ', 'NEURÈENÝ', '' ) ;
#177 = PERSON_AND_ORGANIZATION ( #51, #176 ) ;
#178 = APPLICATION_CONTEXT ( 'configuration controlled 3d designs of mechanical parts and assemblies' ) ;
#179 = CC_DESIGN_PERSON_AND_ORGANIZATION_ASSIGNMENT ( #25, #238, ( #23 ) ) ;
#180 = DATE_TIME_ROLE ( 'classification_date' ) ;
#181 = VERTEX_POINT ( 'NONE', #32 ) ;
#182 = CC_DESIGN_PERSON_AND_ORGANIZATION_ASSIGNMENT ( #190, #154, ( #81 ) ) ;
#183 = ORIENTED_EDGE ( 'NONE', *, *, #49, .T. ) ;
#184 = CYLINDRICAL_SURFACE ( 'NONE', #19, 5.250000000000000000 ) ;
#185 = CARTESIAN_POINT ( 'NONE',  ( -5.250000000000000000, 0.000000000000000000, 505.0000000000000000 ) ) ;
#186 = CARTESIAN_POINT ( 'NONE',  ( 8.000000000000000000, 9.797174393178825657E-16, 5.000000000000000000 ) ) ;
#187 = DIRECTION ( 'NONE',  ( -0.000000000000000000, -0.000000000000000000, -1.000000000000000000 ) ) ;
#188 = AXIS2_PLACEMENT_3D ( 'NONE', #109, #73, #91 ) ;
#189 = LOCAL_TIME ( 19, 23, 37.00000000000000000, #62 ) ;
#190 = PERSON_AND_ORGANIZATION ( #51, #176 ) ;
#191 = CYLINDRICAL_SURFACE ( 'NONE', #161, 8.000000000000000000 ) ;
#192 = EDGE_CURVE ( 'NONE', #28, #181, #138, .T. ) ;
#193 = CARTESIAN_POINT ( 'NONE',  ( 0.000000000000000000, 0.000000000000000000, 5.000000000000000000 ) ) ;
#194 = PRODUCT_DEFINITION_FORMATION_WITH_SPECIFIED_SOURCE ( 'LIBOVOLNÝ', '', #197, .NOT_KNOWN. ) ;
#195 = ADVANCED_FACE ( 'NONE', ( #211 ), #251, .F. ) ;
#196 = DATE_AND_TIME ( #253, #165 ) ;
#197 = PRODUCT ( 'bbab', 'bbab', '', ( #122 ) ) ;
#198 = AXIS2_PLACEMENT_3D ( 'NONE', #131, #144, #26 ) ;
#199 = ORIENTED_EDGE ( 'NONE', *, *, #59, .F. ) ;
#200 = ADVANCED_FACE ( 'NONE', ( #153 ), #246, .T. ) ;
#201 = VERTEX_POINT ( 'NONE', #33 ) ;
#202 = PERSON_AND_ORGANIZATION ( #51, #176 ) ;
#203 = ADVANCED_FACE ( 'NONE', ( #77 ), #191, .T. ) ;
#204 = DIRECTION ( 'NONE',  ( -1.000000000000000000, 0.000000000000000000, 0.000000000000000000 ) ) ;
#205 = CARTESIAN_POINT ( 'NONE',  ( 8.000000000000000000, 9.797174393178825657E-16, 5.000000000000000000 ) ) ;
#206 = ORIENTED_EDGE ( 'NONE', *, *, #104, .F. ) ;
#207 = CLOSED_SHELL ( 'NONE', ( #30, #11, #203, #145, #195, #114, #200 ) ) ;
#208 = CYLINDRICAL_SURFACE ( 'NONE', #234, 5.250000000000000000 ) ;
#209 = DIRECTION ( 'NONE',  ( 0.000000000000000000, 0.000000000000000000, 1.000000000000000000 ) ) ;
#210 = CARTESIAN_POINT ( 'NONE',  ( -5.250000000000000000, 0.000000000000000000, 505.0000000000000000 ) ) ;
#211 = FACE_OUTER_BOUND ( 'NONE', #5, .T. ) ;
#212 = CC_DESIGN_APPROVAL ( #35, ( #23 ) ) ;
#213 = EDGE_CURVE ( 'NONE', #3, #28, #136, .T. ) ;
#214 = CARTESIAN_POINT ( 'NONE',  ( -8.000000000000000000, 0.000000000000000000, 5.000000000000000000 ) ) ;
#215 = DATE_AND_TIME ( #88, #117 ) ;
#216 = APPROVAL ( #255, 'NEURÈENÝ' ) ;
#217 = VECTOR ( 'NONE', #115, 1000.000000000000000 ) ;
#218 = PERSON_AND_ORGANIZATION ( #51, #176 ) ;
#219 = SHAPE_DEFINITION_REPRESENTATION ( #20, #8 ) ;
#220 = ORIENTED_EDGE ( 'NONE', *, *, #240, .F. ) ;
#221 = VERTEX_POINT ( 'NONE', #186 ) ;
#222 = VECTOR ( 'NONE', #9, 1000.000000000000000 ) ;
#223 = MANIFOLD_SOLID_BREP ( 'Pøidat vysunutím3', #207 ) ;
#224 = ORIENTED_EDGE ( 'NONE', *, *, #158, .T. ) ;
#225 = DIRECTION ( 'NONE',  ( -1.000000000000000000, 0.000000000000000000, 0.000000000000000000 ) ) ;
#226 = DIRECTION ( 'NONE',  ( 1.000000000000000000, 0.000000000000000000, 0.000000000000000000 ) ) ;
#227 = CC_DESIGN_PERSON_AND_ORGANIZATION_ASSIGNMENT ( #202, #143, ( #194 ) ) ;
#228 = AXIS2_PLACEMENT_3D ( 'NONE', #97, #36, #254 ) ;
#229 = DIRECTION ( 'NONE',  ( 1.000000000000000000, 0.000000000000000000, -0.000000000000000000 ) ) ;
#230 = DIRECTION ( 'NONE',  ( 1.000000000000000000, 0.000000000000000000, 0.000000000000000000 ) ) ;
#231 = EDGE_CURVE ( 'NONE', #3, #72, #27, .T. ) ;
#232 = CARTESIAN_POINT ( 'NONE',  ( 0.000000000000000000, 0.000000000000000000, 505.0000000000000000 ) ) ;
#233 = LINE ( 'NONE', #214, #247 ) ;
#234 = AXIS2_PLACEMENT_3D ( 'NONE', #248, #187, #171 ) ;
#235 = PERSON_AND_ORGANIZATION ( #51, #176 ) ;
#236 = DATE_AND_TIME ( #121, #53 ) ;
#237 = CIRCLE ( 'NONE', #169, 5.250000000000000000 ) ;
#238 = PERSON_AND_ORGANIZATION_ROLE ( 'classification_officer' ) ;
#239 = APPLICATION_CONTEXT ( 'configuration controlled 3d designs of mechanical parts and assemblies' ) ;
#240 = EDGE_CURVE ( 'NONE', #181, #28, #237, .T. ) ;
#241 = SECURITY_CLASSIFICATION_LEVEL ( 'unclassified' ) ;
#242 = CYLINDRICAL_SURFACE ( 'NONE', #147, 8.000000000000000000 ) ;
#243 = ORIENTED_EDGE ( 'NONE', *, *, #74, .F. ) ;
#244 = ORIENTED_EDGE ( 'NONE', *, *, #49, .F. ) ;
#245 = DIRECTION ( 'NONE',  ( -0.000000000000000000, -0.000000000000000000, -1.000000000000000000 ) ) ;
#246 = PLANE ( 'NONE',  #10 ) ;
#247 = VECTOR ( 'NONE', #14, 1000.000000000000000 ) ;
#248 = CARTESIAN_POINT ( 'NONE',  ( 0.000000000000000000, 0.000000000000000000, 505.0000000000000000 ) ) ;
#249 = CARTESIAN_POINT ( 'NONE',  ( 0.000000000000000000, 0.000000000000000000, 5.000000000000000000 ) ) ;
#250 =( NAMED_UNIT ( * ) SI_UNIT ( $, .STERADIAN. ) SOLID_ANGLE_UNIT ( ) );
#251 = PLANE ( 'NONE',  #132 ) ;
#252 = DATE_AND_TIME ( #39, #189 ) ;
#253 = CALENDAR_DATE ( 2022, 7, 7 ) ;
#254 = DIRECTION ( 'NONE',  ( 1.000000000000000000, 0.000000000000000000, 0.000000000000000000 ) ) ;
#255 = APPROVAL_STATUS ( 'not_yet_approved' ) ;
ENDSEC;
END-ISO-10303-21;
