ISO-10303-21;
HEADER;
FILE_DESCRIPTION (( 'STEP AP203' ),
    '1' );
FILE_NAME ('d75e.STEP',
    '2022-07-07T17:49:23',
    ( '' ),
    ( '' ),
    'SwSTEP 2.0',
    'SolidWorks 2019',
    '' );
FILE_SCHEMA (( 'CONFIG_CONTROL_DESIGN' ));
ENDSEC;

DATA;
#1 = AXIS2_PLACEMENT_3D ( 'NONE', #25, #30, #113 ) ;
#2 = LINE ( 'NONE', #222, #193 ) ;
#3 = PRODUCT_DEFINITION ( 'NEZNÁMÝ', '', #101, #194 ) ;
#4 = DIRECTION ( 'NONE',  ( 1.000000000000000000, 0.000000000000000000, 0.000000000000000000 ) ) ;
#5 = EDGE_LOOP ( 'NONE', ( #46, #8 ) ) ;
#6 = AXIS2_PLACEMENT_3D ( 'NONE', #199, #34, #239 ) ;
#7 = DIRECTION ( 'NONE',  ( -1.000000000000000000, 0.000000000000000000, 0.000000000000000000 ) ) ;
#8 = ORIENTED_EDGE ( 'NONE', *, *, #77, .T. ) ;
#9 = DIRECTION ( 'NONE',  ( 0.000000000000000000, 0.000000000000000000, 1.000000000000000000 ) ) ;
#10 = CYLINDRICAL_SURFACE ( 'NONE', #255, 4.000000000000000000 ) ;
#11 = AXIS2_PLACEMENT_3D ( 'NONE', #92, #27, #162 ) ;
#12 = AXIS2_PLACEMENT_3D ( 'NONE', #238, #65, #223 ) ;
#13 = LOCAL_TIME ( 19, 49, 23.00000000000000000, #231 ) ;
#14 = ORIENTED_EDGE ( 'NONE', *, *, #224, .F. ) ;
#15 = SHAPE_DEFINITION_REPRESENTATION ( #79, #206 ) ;
#16 = CARTESIAN_POINT ( 'NONE',  ( -2.250000000000000000, 0.000000000000000000, 128.0000000000000000 ) ) ;
#17 = LOCAL_TIME ( 19, 49, 23.00000000000000000, #189 ) ;
#18 =( NAMED_UNIT ( * ) SI_UNIT ( $, .STERADIAN. ) SOLID_ANGLE_UNIT ( ) );
#19 = EDGE_CURVE ( 'NONE', #226, #138, #203, .T. ) ;
#20 = CC_DESIGN_SECURITY_CLASSIFICATION ( #234, ( #101 ) ) ;
#21 = EDGE_CURVE ( 'NONE', #209, #138, #197, .T. ) ;
#22 = CARTESIAN_POINT ( 'NONE',  ( -4.000000000000000000, 0.000000000000000000, 3.000000000000000000 ) ) ;
#23 = CARTESIAN_POINT ( 'NONE',  ( -4.000000000000000000, 0.000000000000000000, 0.000000000000000000 ) ) ;
#24 = DIRECTION ( 'NONE',  ( 1.000000000000000000, 0.000000000000000000, -0.000000000000000000 ) ) ;
#25 = CARTESIAN_POINT ( 'NONE',  ( 0.000000000000000000, 0.000000000000000000, 3.000000000000000000 ) ) ;
#26 = ORIENTED_EDGE ( 'NONE', *, *, #21, .F. ) ;
#27 = DIRECTION ( 'NONE',  ( -0.000000000000000000, -0.000000000000000000, -1.000000000000000000 ) ) ;
#28 = CARTESIAN_POINT ( 'NONE',  ( 0.000000000000000000, 0.000000000000000000, 3.000000000000000000 ) ) ;
#29 = ADVANCED_FACE ( 'NONE', ( #182, #163 ), #64, .T. ) ;
#30 = DIRECTION ( 'NONE',  ( -0.000000000000000000, -0.000000000000000000, -1.000000000000000000 ) ) ;
#31 = AXIS2_PLACEMENT_3D ( 'NONE', #186, #107, #69 ) ;
#32 = PRODUCT_RELATED_PRODUCT_CATEGORY ( 'detail', '', ( #72 ) ) ;
#33 = APPROVAL_DATE_TIME ( #152, #245 ) ;
#34 = DIRECTION ( 'NONE',  ( 0.000000000000000000, 0.000000000000000000, 1.000000000000000000 ) ) ;
#35 = PERSON_AND_ORGANIZATION_ROLE ( 'classification_officer' ) ;
#36 = EDGE_CURVE ( 'NONE', #63, #144, #179, .T. ) ;
#37 = APPROVAL_ROLE ( '' ) ;
#38 = EDGE_LOOP ( 'NONE', ( #219, #215, #105, #141 ) ) ;
#39 = ORGANIZATION ( 'NEURÈENÝ', 'NEURÈENÝ', '' ) ;
#40 = EDGE_CURVE ( 'NONE', #136, #241, #2, .T. ) ;
#41 = ORIENTED_EDGE ( 'NONE', *, *, #49, .F. ) ;
#42 = CC_DESIGN_PERSON_AND_ORGANIZATION_ASSIGNMENT ( #119, #76, ( #72 ) ) ;
#43 = DIRECTION ( 'NONE',  ( 1.000000000000000000, 0.000000000000000000, 0.000000000000000000 ) ) ;
#44 = EDGE_LOOP ( 'NONE', ( #41, #103, #177, #123 ) ) ;
#45 = CARTESIAN_POINT ( 'NONE',  ( 0.000000000000000000, 0.000000000000000000, 128.0000000000000000 ) ) ;
#46 = ORIENTED_EDGE ( 'NONE', *, *, #159, .T. ) ;
#47 = CARTESIAN_POINT ( 'NONE',  ( 0.000000000000000000, 0.000000000000000000, 0.000000000000000000 ) ) ;
#48 = DIRECTION ( 'NONE',  ( -0.000000000000000000, -0.000000000000000000, -1.000000000000000000 ) ) ;
#49 = EDGE_CURVE ( 'NONE', #226, #53, #58, .T. ) ;
#50 = CC_DESIGN_APPROVAL ( #205, ( #234 ) ) ;
#51 = CYLINDRICAL_SURFACE ( 'NONE', #1, 4.000000000000000000 ) ;
#52 = MECHANICAL_CONTEXT ( 'NONE', #89, 'mechanical' ) ;
#53 = VERTEX_POINT ( 'NONE', #22 ) ;
#54 =( NAMED_UNIT ( * ) PLANE_ANGLE_UNIT ( ) SI_UNIT ( $, .RADIAN. ) );
#55 = DATE_AND_TIME ( #118, #13 ) ;
#56 = APPROVAL ( #210, 'NEURÈENÝ' ) ;
#57 = DATE_AND_TIME ( #232, #229 ) ;
#58 = CIRCLE ( 'NONE', #195, 4.000000000000000000 ) ;
#59 = PERSON_AND_ORGANIZATION ( #102, #39 ) ;
#60 = CC_DESIGN_APPROVAL ( #56, ( #101 ) ) ;
#61 = EDGE_CURVE ( 'NONE', #53, #209, #95, .T. ) ;
#62 = CARTESIAN_POINT ( 'NONE',  ( 2.250000000000000000, 2.755455298081544285E-16, 3.000000000000000000 ) ) ;
#63 = VERTEX_POINT ( 'NONE', #216 ) ;
#64 = PLANE ( 'NONE',  #156 ) ;
#65 = DIRECTION ( 'NONE',  ( 0.000000000000000000, 0.000000000000000000, 1.000000000000000000 ) ) ;
#66 = DIRECTION ( 'NONE',  ( -0.000000000000000000, -0.000000000000000000, -1.000000000000000000 ) ) ;
#67 = DIRECTION ( 'NONE',  ( 0.000000000000000000, 0.000000000000000000, 1.000000000000000000 ) ) ;
#68 =( GEOMETRIC_REPRESENTATION_CONTEXT ( 3 ) GLOBAL_UNCERTAINTY_ASSIGNED_CONTEXT ( ( #183 ) ) GLOBAL_UNIT_ASSIGNED_CONTEXT ( ( #192, #54, #18 ) ) REPRESENTATION_CONTEXT ( 'NONE', 'WORKASPACE' ) );
#69 = DIRECTION ( 'NONE',  ( 1.000000000000000000, 0.000000000000000000, 0.000000000000000000 ) ) ;
#70 = CC_DESIGN_PERSON_AND_ORGANIZATION_ASSIGNMENT ( #59, #250, ( #101 ) ) ;
#71 = DIRECTION ( 'NONE',  ( -0.000000000000000000, -0.000000000000000000, -1.000000000000000000 ) ) ;
#72 = PRODUCT ( 'd75e', 'd75e', '', ( #52 ) ) ;
#73 = DATE_TIME_ROLE ( 'classification_date' ) ;
#74 = APPROVAL_DATE_TIME ( #55, #56 ) ;
#75 = AXIS2_PLACEMENT_3D ( 'NONE', #47, #166, #126 ) ;
#76 = PERSON_AND_ORGANIZATION_ROLE ( 'design_owner' ) ;
#77 = EDGE_CURVE ( 'NONE', #136, #63, #94, .T. ) ;
#78 = COORDINATED_UNIVERSAL_TIME_OFFSET ( 1, 0, .AHEAD. ) ;
#79 = PRODUCT_DEFINITION_SHAPE ( 'NONE', 'NONE',  #3 ) ;
#80 = COORDINATED_UNIVERSAL_TIME_OFFSET ( 1, 0, .AHEAD. ) ;
#81 = AXIS2_PLACEMENT_3D ( 'NONE', #242, #145, #147 ) ;
#82 = CIRCLE ( 'NONE', #180, 4.000000000000000000 ) ;
#83 = EDGE_CURVE ( 'NONE', #138, #209, #82, .T. ) ;
#84 = EDGE_LOOP ( 'NONE', ( #26, #217 ) ) ;
#85 = DIRECTION ( 'NONE',  ( -0.000000000000000000, -0.000000000000000000, -1.000000000000000000 ) ) ;
#86 = ORIENTED_EDGE ( 'NONE', *, *, #100, .T. ) ;
#87 = DIRECTION ( 'NONE',  ( 0.000000000000000000, 0.000000000000000000, 1.000000000000000000 ) ) ;
#88 = ORIENTED_EDGE ( 'NONE', *, *, #61, .T. ) ;
#89 = APPLICATION_CONTEXT ( 'configuration controlled 3d designs of mechanical parts and assemblies' ) ;
#90 = CARTESIAN_POINT ( 'NONE',  ( 2.250000000000000000, 2.755455298081544285E-16, 128.0000000000000000 ) ) ;
#91 = CALENDAR_DATE ( 2022, 7, 7 ) ;
#92 = CARTESIAN_POINT ( 'NONE',  ( 0.000000000000000000, 0.000000000000000000, 128.0000000000000000 ) ) ;
#93 = EDGE_CURVE ( 'NONE', #144, #241, #171, .T. ) ;
#94 = CIRCLE ( 'NONE', #125, 2.250000000000000000 ) ;
#95 = LINE ( 'NONE', #169, #228 ) ;
#96 = EDGE_LOOP ( 'NONE', ( #248, #14 ) ) ;
#97 = APPROVAL_ROLE ( '' ) ;
#98 = PERSON_AND_ORGANIZATION ( #102, #39 ) ;
#99 = PERSON_AND_ORGANIZATION ( #102, #39 ) ;
#100 = EDGE_CURVE ( 'NONE', #53, #226, #233, .T. ) ;
#101 = PRODUCT_DEFINITION_FORMATION_WITH_SPECIFIED_SOURCE ( 'LIBOVOLNÝ', '', #72, .NOT_KNOWN. ) ;
#102 = PERSON ( 'NEURÈENÝ', 'NEURÈENÝ', 'NEURÈENÝ', ('NEURÈENÝ'), ('NEURÈENÝ'), ('NEURÈENÝ') ) ;
#103 = ORIENTED_EDGE ( 'NONE', *, *, #19, .T. ) ;
#104 = CARTESIAN_POINT ( 'NONE',  ( 0.000000000000000000, 0.000000000000000000, 0.000000000000000000 ) ) ;
#105 = ORIENTED_EDGE ( 'NONE', *, *, #36, .T. ) ;
#106 = ADVANCED_FACE ( 'NONE', ( #202 ), #10, .T. ) ;
#107 = DIRECTION ( 'NONE',  ( 0.000000000000000000, 0.000000000000000000, 1.000000000000000000 ) ) ;
#108 = DIRECTION ( 'NONE',  ( -0.000000000000000000, -0.000000000000000000, -1.000000000000000000 ) ) ;
#109 = CLOSED_SHELL ( 'NONE', ( #251, #106, #188, #29, #124, #121, #117 ) ) ;
#110 = DIRECTION ( 'NONE',  ( 0.000000000000000000, 0.000000000000000000, 1.000000000000000000 ) ) ;
#111 = ORIENTED_EDGE ( 'NONE', *, *, #21, .T. ) ;
#112 = CC_DESIGN_DATE_AND_TIME_ASSIGNMENT ( #57, #73, ( #234 ) ) ;
#113 = DIRECTION ( 'NONE',  ( -1.000000000000000000, 0.000000000000000000, 0.000000000000000000 ) ) ;
#114 = ORIENTED_EDGE ( 'NONE', *, *, #224, .T. ) ;
#115 = CARTESIAN_POINT ( 'NONE',  ( 0.000000000000000000, 0.000000000000000000, 0.000000000000000000 ) ) ;
#116 = DIRECTION ( 'NONE',  ( 0.000000000000000000, 0.000000000000000000, 1.000000000000000000 ) ) ;
#117 = ADVANCED_FACE ( 'NONE', ( #204 ), #221, .T. ) ;
#118 = CALENDAR_DATE ( 2022, 7, 7 ) ;
#119 = PERSON_AND_ORGANIZATION ( #102, #39 ) ;
#120 = DIRECTION ( 'NONE',  ( 1.000000000000000000, 0.000000000000000000, 0.000000000000000000 ) ) ;
#121 = ADVANCED_FACE ( 'NONE', ( #139 ), #143, .T. ) ;
#122 = APPROVAL_PERSON_ORGANIZATION ( #99, #56, #97 ) ;
#123 = ORIENTED_EDGE ( 'NONE', *, *, #61, .F. ) ;
#124 = ADVANCED_FACE ( 'NONE', ( #128 ), #244, .F. ) ;
#125 = AXIS2_PLACEMENT_3D ( 'NONE', #200, #87, #130 ) ;
#126 = DIRECTION ( 'NONE',  ( 1.000000000000000000, 0.000000000000000000, -0.000000000000000000 ) ) ;
#127 = CARTESIAN_POINT ( 'NONE',  ( 4.000000000000000000, 4.898587196589412829E-16, 3.000000000000000000 ) ) ;
#128 = FACE_OUTER_BOUND ( 'NONE', #84, .T. ) ;
#129 = ORIENTED_EDGE ( 'NONE', *, *, #19, .F. ) ;
#130 = DIRECTION ( 'NONE',  ( 1.000000000000000000, 0.000000000000000000, 0.000000000000000000 ) ) ;
#131 = CARTESIAN_POINT ( 'NONE',  ( 0.000000000000000000, 0.000000000000000000, 3.000000000000000000 ) ) ;
#132 = LOCAL_TIME ( 19, 49, 23.00000000000000000, #80 ) ;
#133 = CC_DESIGN_PERSON_AND_ORGANIZATION_ASSIGNMENT ( #98, #151, ( #101 ) ) ;
#134 = DIRECTION ( 'NONE',  ( 1.000000000000000000, 0.000000000000000000, 0.000000000000000000 ) ) ;
#135 = VECTOR ( 'NONE', #108, 1000.000000000000000 ) ;
#136 = VERTEX_POINT ( 'NONE', #90 ) ;
#137 = APPROVAL_PERSON_ORGANIZATION ( #154, #245, #37 ) ;
#138 = VERTEX_POINT ( 'NONE', #164 ) ;
#139 = FACE_OUTER_BOUND ( 'NONE', #38, .T. ) ;
#140 = CIRCLE ( 'NONE', #31, 2.250000000000000000 ) ;
#141 = ORIENTED_EDGE ( 'NONE', *, *, #93, .T. ) ;
#142 = MANIFOLD_SOLID_BREP ( 'Pøidat vysunutím3', #109 ) ;
#143 = CYLINDRICAL_SURFACE ( 'NONE', #11, 2.250000000000000000 ) ;
#144 = VERTEX_POINT ( 'NONE', #198 ) ;
#145 = DIRECTION ( 'NONE',  ( 0.000000000000000000, 0.000000000000000000, 1.000000000000000000 ) ) ;
#146 = EDGE_LOOP ( 'NONE', ( #129, #196, #88, #111 ) ) ;
#147 = DIRECTION ( 'NONE',  ( 1.000000000000000000, 0.000000000000000000, -0.000000000000000000 ) ) ;
#148 = AXIS2_PLACEMENT_3D ( 'NONE', #184, #9, #134 ) ;
#149 = DIRECTION ( 'NONE',  ( -1.000000000000000000, 0.000000000000000000, 0.000000000000000000 ) ) ;
#150 = ORIENTED_EDGE ( 'NONE', *, *, #49, .T. ) ;
#151 = PERSON_AND_ORGANIZATION_ROLE ( 'design_supplier' ) ;
#152 = DATE_AND_TIME ( #157, #132 ) ;
#153 = CC_DESIGN_PERSON_AND_ORGANIZATION_ASSIGNMENT ( #211, #35, ( #234 ) ) ;
#154 = PERSON_AND_ORGANIZATION ( #102, #39 ) ;
#155 = APPROVAL_PERSON_ORGANIZATION ( #207, #205, #249 ) ;
#156 = AXIS2_PLACEMENT_3D ( 'NONE', #131, #243, #24 ) ;
#157 = CALENDAR_DATE ( 2022, 7, 7 ) ;
#158 = AXIS2_PLACEMENT_3D ( 'NONE', #45, #85, #7 ) ;
#159 = EDGE_CURVE ( 'NONE', #63, #136, #176, .T. ) ;
#160 = DIRECTION ( 'NONE',  ( -0.000000000000000000, -0.000000000000000000, -1.000000000000000000 ) ) ;
#161 = EDGE_LOOP ( 'NONE', ( #86, #150 ) ) ;
#162 = DIRECTION ( 'NONE',  ( -1.000000000000000000, 0.000000000000000000, 0.000000000000000000 ) ) ;
#163 = FACE_OUTER_BOUND ( 'NONE', #161, .T. ) ;
#164 = CARTESIAN_POINT ( 'NONE',  ( 4.000000000000000000, 4.898587196589412829E-16, 0.000000000000000000 ) ) ;
#165 = APPROVAL_STATUS ( 'not_yet_approved' ) ;
#166 = DIRECTION ( 'NONE',  ( 0.000000000000000000, 0.000000000000000000, 1.000000000000000000 ) ) ;
#167 = VECTOR ( 'NONE', #66, 1000.000000000000000 ) ;
#168 = APPROVAL_DATE_TIME ( #246, #205 ) ;
#169 = CARTESIAN_POINT ( 'NONE',  ( -4.000000000000000000, 0.000000000000000000, 3.000000000000000000 ) ) ;
#170 = PERSON_AND_ORGANIZATION ( #102, #39 ) ;
#171 = CIRCLE ( 'NONE', #148, 2.250000000000000000 ) ;
#172 = SECURITY_CLASSIFICATION_LEVEL ( 'unclassified' ) ;
#173 = PERSON_AND_ORGANIZATION_ROLE ( 'creator' ) ;
#174 = APPLICATION_PROTOCOL_DEFINITION ( 'international standard', 'config_control_design', 1994, #214 ) ;
#175 = CC_DESIGN_APPROVAL ( #245, ( #3 ) ) ;
#176 = CIRCLE ( 'NONE', #236, 2.250000000000000000 ) ;
#177 = ORIENTED_EDGE ( 'NONE', *, *, #83, .T. ) ;
#178 = CARTESIAN_POINT ( 'NONE',  ( 0.000000000000000000, 0.000000000000000000, 3.000000000000000000 ) ) ;
#179 = LINE ( 'NONE', #16, #167 ) ;
#180 = AXIS2_PLACEMENT_3D ( 'NONE', #104, #110, #43 ) ;
#181 = CYLINDRICAL_SURFACE ( 'NONE', #158, 2.250000000000000000 ) ;
#182 = FACE_BOUND ( 'NONE', #96, .T. ) ;
#183 = UNCERTAINTY_MEASURE_WITH_UNIT (LENGTH_MEASURE( 1.000000000000000082E-05 ), #192, 'distance_accuracy_value', 'NONE');
#184 = CARTESIAN_POINT ( 'NONE',  ( 0.000000000000000000, 0.000000000000000000, 3.000000000000000000 ) ) ;
#185 = DIRECTION ( 'NONE',  ( 1.000000000000000000, 0.000000000000000000, 0.000000000000000000 ) ) ;
#186 = CARTESIAN_POINT ( 'NONE',  ( 0.000000000000000000, 0.000000000000000000, 3.000000000000000000 ) ) ;
#187 = AXIS2_PLACEMENT_3D ( 'NONE', #115, #252, #120 ) ;
#188 = ADVANCED_FACE ( 'NONE', ( #247 ), #51, .T. ) ;
#189 = COORDINATED_UNIVERSAL_TIME_OFFSET ( 1, 0, .AHEAD. ) ;
#190 = DATE_TIME_ROLE ( 'creation_date' ) ;
#191 = ORIENTED_EDGE ( 'NONE', *, *, #36, .F. ) ;
#192 =( LENGTH_UNIT ( ) NAMED_UNIT ( * ) SI_UNIT ( .MILLI., .METRE. ) );
#193 = VECTOR ( 'NONE', #48, 1000.000000000000000 ) ;
#194 = DESIGN_CONTEXT ( 'detailed design', #214, 'design' ) ;
#195 = AXIS2_PLACEMENT_3D ( 'NONE', #28, #116, #185 ) ;
#196 = ORIENTED_EDGE ( 'NONE', *, *, #100, .F. ) ;
#197 = CIRCLE ( 'NONE', #6, 4.000000000000000000 ) ;
#198 = CARTESIAN_POINT ( 'NONE',  ( -2.250000000000000000, 0.000000000000000000, 3.000000000000000000 ) ) ;
#199 = CARTESIAN_POINT ( 'NONE',  ( 0.000000000000000000, 0.000000000000000000, 0.000000000000000000 ) ) ;
#200 = CARTESIAN_POINT ( 'NONE',  ( 0.000000000000000000, 0.000000000000000000, 128.0000000000000000 ) ) ;
#201 = ORIENTED_EDGE ( 'NONE', *, *, #40, .T. ) ;
#202 = FACE_OUTER_BOUND ( 'NONE', #44, .T. ) ;
#203 = LINE ( 'NONE', #127, #135 ) ;
#204 = FACE_OUTER_BOUND ( 'NONE', #5, .T. ) ;
#205 = APPROVAL ( #165, 'NEURÈENÝ' ) ;
#206 = ADVANCED_BREP_SHAPE_REPRESENTATION ( 'd75e', ( #142, #187 ), #68 ) ;
#207 = PERSON_AND_ORGANIZATION ( #102, #39 ) ;
#208 = APPROVAL_STATUS ( 'not_yet_approved' ) ;
#209 = VERTEX_POINT ( 'NONE', #23 ) ;
#210 = APPROVAL_STATUS ( 'not_yet_approved' ) ;
#211 = PERSON_AND_ORGANIZATION ( #102, #39 ) ;
#212 = LOCAL_TIME ( 19, 49, 23.00000000000000000, #230 ) ;
#213 = DATE_AND_TIME ( #235, #212 ) ;
#214 = APPLICATION_CONTEXT ( 'configuration controlled 3d designs of mechanical parts and assemblies' ) ;
#215 = ORIENTED_EDGE ( 'NONE', *, *, #159, .F. ) ;
#216 = CARTESIAN_POINT ( 'NONE',  ( -2.250000000000000000, 0.000000000000000000, 128.0000000000000000 ) ) ;
#217 = ORIENTED_EDGE ( 'NONE', *, *, #83, .F. ) ;
#218 = CARTESIAN_POINT ( 'NONE',  ( 0.000000000000000000, 0.000000000000000000, 128.0000000000000000 ) ) ;
#219 = ORIENTED_EDGE ( 'NONE', *, *, #40, .F. ) ;
#220 = EDGE_LOOP ( 'NONE', ( #227, #201, #114, #191 ) ) ;
#221 = PLANE ( 'NONE',  #81 ) ;
#222 = CARTESIAN_POINT ( 'NONE',  ( 2.250000000000000000, 2.755455298081544285E-16, 128.0000000000000000 ) ) ;
#223 = DIRECTION ( 'NONE',  ( 1.000000000000000000, 0.000000000000000000, 0.000000000000000000 ) ) ;
#224 = EDGE_CURVE ( 'NONE', #241, #144, #140, .T. ) ;
#225 = CARTESIAN_POINT ( 'NONE',  ( 4.000000000000000000, 4.898587196589412829E-16, 3.000000000000000000 ) ) ;
#226 = VERTEX_POINT ( 'NONE', #225 ) ;
#227 = ORIENTED_EDGE ( 'NONE', *, *, #77, .F. ) ;
#228 = VECTOR ( 'NONE', #71, 1000.000000000000000 ) ;
#229 = LOCAL_TIME ( 19, 49, 23.00000000000000000, #78 ) ;
#230 = COORDINATED_UNIVERSAL_TIME_OFFSET ( 1, 0, .AHEAD. ) ;
#231 = COORDINATED_UNIVERSAL_TIME_OFFSET ( 1, 0, .AHEAD. ) ;
#232 = CALENDAR_DATE ( 2022, 7, 7 ) ;
#233 = CIRCLE ( 'NONE', #12, 4.000000000000000000 ) ;
#234 = SECURITY_CLASSIFICATION ( '', '', #172 ) ;
#235 = CALENDAR_DATE ( 2022, 7, 7 ) ;
#236 = AXIS2_PLACEMENT_3D ( 'NONE', #218, #67, #4 ) ;
#237 = CC_DESIGN_PERSON_AND_ORGANIZATION_ASSIGNMENT ( #170, #173, ( #3 ) ) ;
#238 = CARTESIAN_POINT ( 'NONE',  ( 0.000000000000000000, 0.000000000000000000, 3.000000000000000000 ) ) ;
#239 = DIRECTION ( 'NONE',  ( 1.000000000000000000, 0.000000000000000000, 0.000000000000000000 ) ) ;
#240 = FACE_OUTER_BOUND ( 'NONE', #220, .T. ) ;
#241 = VERTEX_POINT ( 'NONE', #62 ) ;
#242 = CARTESIAN_POINT ( 'NONE',  ( 0.000000000000000000, 0.000000000000000000, 128.0000000000000000 ) ) ;
#243 = DIRECTION ( 'NONE',  ( 0.000000000000000000, 0.000000000000000000, 1.000000000000000000 ) ) ;
#244 = PLANE ( 'NONE',  #75 ) ;
#245 = APPROVAL ( #208, 'NEURÈENÝ' ) ;
#246 = DATE_AND_TIME ( #91, #17 ) ;
#247 = FACE_OUTER_BOUND ( 'NONE', #146, .T. ) ;
#248 = ORIENTED_EDGE ( 'NONE', *, *, #93, .F. ) ;
#249 = APPROVAL_ROLE ( '' ) ;
#250 = PERSON_AND_ORGANIZATION_ROLE ( 'creator' ) ;
#251 = ADVANCED_FACE ( 'NONE', ( #240 ), #181, .T. ) ;
#252 = DIRECTION ( 'NONE',  ( 0.000000000000000000, 0.000000000000000000, 1.000000000000000000 ) ) ;
#253 = CC_DESIGN_DATE_AND_TIME_ASSIGNMENT ( #213, #190, ( #3 ) ) ;
#254 = APPLICATION_PROTOCOL_DEFINITION ( 'international standard', 'config_control_design', 1994, #89 ) ;
#255 = AXIS2_PLACEMENT_3D ( 'NONE', #178, #160, #149 ) ;
ENDSEC;
END-ISO-10303-21;
