ISO-10303-21;
HEADER;
FILE_DESCRIPTION (( 'STEP AP203' ),
    '1' );
FILE_NAME ('125e.STEP',
    '2023-02-13T15:21:12',
    ( '' ),
    ( '' ),
    'SwSTEP 2.0',
    'SolidWorks 2019',
    '' );
FILE_SCHEMA (( 'CONFIG_CONTROL_DESIGN' ));
ENDSEC;

DATA;
#1 = EDGE_LOOP ( 'NONE', ( #123, #63, #120, #97 ) ) ;
#2 = APPROVAL_DATE_TIME ( #224, #198 ) ;
#3 = CC_DESIGN_SECURITY_CLASSIFICATION ( #94, ( #252 ) ) ;
#4 = DIRECTION ( 'NONE',  ( 0.000000000000000000, 0.000000000000000000, 1.000000000000000000 ) ) ;
#5 = PERSON_AND_ORGANIZATION ( #122, #246 ) ;
#6 = EDGE_LOOP ( 'NONE', ( #17, #79 ) ) ;
#7 =( NAMED_UNIT ( * ) PLANE_ANGLE_UNIT ( ) SI_UNIT ( $, .RADIAN. ) );
#8 = SHAPE_DEFINITION_REPRESENTATION ( #160, #38 ) ;
#9 = CARTESIAN_POINT ( 'NONE',  ( 0.000000000000000000, 0.000000000000000000, 5.000000000000000000 ) ) ;
#10 = DATE_AND_TIME ( #103, #207 ) ;
#11 = LINE ( 'NONE', #128, #210 ) ;
#12 = CARTESIAN_POINT ( 'NONE',  ( 6.000000000000000888, 7.347880794884120722E-16, 5.000000000000000000 ) ) ;
#13 = CC_DESIGN_PERSON_AND_ORGANIZATION_ASSIGNMENT ( #211, #227, ( #205 ) ) ;
#14 = ORIENTED_EDGE ( 'NONE', *, *, #197, .F. ) ;
#15 = ADVANCED_FACE ( 'NONE', ( #195 ), #141, .T. ) ;
#16 = FACE_OUTER_BOUND ( 'NONE', #1, .T. ) ;
#17 = ORIENTED_EDGE ( 'NONE', *, *, #106, .T. ) ;
#18 = DIRECTION ( 'NONE',  ( -0.000000000000000000, -0.000000000000000000, -1.000000000000000000 ) ) ;
#19 = APPROVAL_ROLE ( '' ) ;
#20 = ORIENTED_EDGE ( 'NONE', *, *, #144, .F. ) ;
#21 = DATE_AND_TIME ( #67, #107 ) ;
#22 = EDGE_CURVE ( 'NONE', #60, #236, #152, .T. ) ;
#23 = DIRECTION ( 'NONE',  ( 0.000000000000000000, 0.000000000000000000, 1.000000000000000000 ) ) ;
#24 = DIRECTION ( 'NONE',  ( 0.000000000000000000, 0.000000000000000000, 1.000000000000000000 ) ) ;
#25 = DIRECTION ( 'NONE',  ( -1.000000000000000000, 0.000000000000000000, 0.000000000000000000 ) ) ;
#26 = FACE_OUTER_BOUND ( 'NONE', #139, .T. ) ;
#27 = AXIS2_PLACEMENT_3D ( 'NONE', #200, #4, #76 ) ;
#28 = PERSON_AND_ORGANIZATION_ROLE ( 'design_supplier' ) ;
#29 = DESIGN_CONTEXT ( 'detailed design', #72, 'design' ) ;
#30 = DIRECTION ( 'NONE',  ( 0.000000000000000000, 0.000000000000000000, 1.000000000000000000 ) ) ;
#31 = CARTESIAN_POINT ( 'NONE',  ( 6.000000000000000888, 7.347880794884120722E-16, 0.000000000000000000 ) ) ;
#32 = AXIS2_PLACEMENT_3D ( 'NONE', #40, #226, #69 ) ;
#33 = DIRECTION ( 'NONE',  ( 0.000000000000000000, 0.000000000000000000, 1.000000000000000000 ) ) ;
#34 = AXIS2_PLACEMENT_3D ( 'NONE', #71, #30, #253 ) ;
#35 = DIRECTION ( 'NONE',  ( 1.000000000000000000, 0.000000000000000000, -0.000000000000000000 ) ) ;
#36 = EDGE_CURVE ( 'NONE', #179, #241, #214, .T. ) ;
#37 = EDGE_LOOP ( 'NONE', ( #158, #74, #199, #151 ) ) ;
#38 = ADVANCED_BREP_SHAPE_REPRESENTATION ( '125e', ( #155, #233 ), #218 ) ;
#39 = EDGE_LOOP ( 'NONE', ( #215, #193 ) ) ;
#40 = CARTESIAN_POINT ( 'NONE',  ( 0.000000000000000000, 0.000000000000000000, 5.000000000000000000 ) ) ;
#41 = AXIS2_PLACEMENT_3D ( 'NONE', #101, #18, #80 ) ;
#42 = ORIENTED_EDGE ( 'NONE', *, *, #91, .F. ) ;
#43 = DIRECTION ( 'NONE',  ( 1.000000000000000000, 0.000000000000000000, 0.000000000000000000 ) ) ;
#44 = DIRECTION ( 'NONE',  ( -0.000000000000000000, -0.000000000000000000, -1.000000000000000000 ) ) ;
#45 = PERSON_AND_ORGANIZATION ( #122, #246 ) ;
#46 = CARTESIAN_POINT ( 'NONE',  ( 0.000000000000000000, 0.000000000000000000, 100.0000000000000000 ) ) ;
#47 = PERSON_AND_ORGANIZATION ( #122, #246 ) ;
#48 = ORIENTED_EDGE ( 'NONE', *, *, #91, .T. ) ;
#49 = PERSON_AND_ORGANIZATION ( #122, #246 ) ;
#50 = DIRECTION ( 'NONE',  ( 1.000000000000000000, 0.000000000000000000, 0.000000000000000000 ) ) ;
#51 = CC_DESIGN_PERSON_AND_ORGANIZATION_ASSIGNMENT ( #49, #28, ( #252 ) ) ;
#52 = DATE_TIME_ROLE ( 'creation_date' ) ;
#53 = CARTESIAN_POINT ( 'NONE',  ( 0.000000000000000000, 0.000000000000000000, 0.000000000000000000 ) ) ;
#54 = PERSON_AND_ORGANIZATION_ROLE ( 'creator' ) ;
#55 = LOCAL_TIME ( 16, 21, 12.00000000000000000, #108 ) ;
#56 = AXIS2_PLACEMENT_3D ( 'NONE', #53, #189, #88 ) ;
#57 = ORIENTED_EDGE ( 'NONE', *, *, #81, .T. ) ;
#58 = CC_DESIGN_PERSON_AND_ORGANIZATION_ASSIGNMENT ( #149, #54, ( #252 ) ) ;
#59 = CARTESIAN_POINT ( 'NONE',  ( 0.000000000000000000, 0.000000000000000000, 5.000000000000000000 ) ) ;
#60 = VERTEX_POINT ( 'NONE', #98 ) ;
#61 = CARTESIAN_POINT ( 'NONE',  ( 0.000000000000000000, 0.000000000000000000, 5.000000000000000000 ) ) ;
#62 = VECTOR ( 'NONE', #86, 1000.000000000000000 ) ;
#63 = ORIENTED_EDGE ( 'NONE', *, *, #248, .T. ) ;
#64 = CARTESIAN_POINT ( 'NONE',  ( -6.000000000000000888, 0.000000000000000000, 5.000000000000000000 ) ) ;
#65 = AXIS2_PLACEMENT_3D ( 'NONE', #212, #249, #35 ) ;
#66 = CC_DESIGN_PERSON_AND_ORGANIZATION_ASSIGNMENT ( #5, #140, ( #77 ) ) ;
#67 = CALENDAR_DATE ( 2023, 13, 2 ) ;
#68 = CARTESIAN_POINT ( 'NONE',  ( 0.000000000000000000, 0.000000000000000000, 100.0000000000000000 ) ) ;
#69 = DIRECTION ( 'NONE',  ( -1.000000000000000000, 0.000000000000000000, 0.000000000000000000 ) ) ;
#70 = COORDINATED_UNIVERSAL_TIME_OFFSET ( 1, 0, .AHEAD. ) ;
#71 = CARTESIAN_POINT ( 'NONE',  ( 0.000000000000000000, 0.000000000000000000, 5.000000000000000000 ) ) ;
#72 = APPLICATION_CONTEXT ( 'configuration controlled 3d designs of mechanical parts and assemblies' ) ;
#73 = AXIS2_PLACEMENT_3D ( 'NONE', #59, #24, #100 ) ;
#74 = ORIENTED_EDGE ( 'NONE', *, *, #90, .F. ) ;
#75 = CC_DESIGN_APPROVAL ( #105, ( #252 ) ) ;
#76 = DIRECTION ( 'NONE',  ( 1.000000000000000000, 0.000000000000000000, 0.000000000000000000 ) ) ;
#77 = PRODUCT ( '125e', '125e', '', ( #159 ) ) ;
#78 = AXIS2_PLACEMENT_3D ( 'NONE', #61, #220, #222 ) ;
#79 = ORIENTED_EDGE ( 'NONE', *, *, #126, .T. ) ;
#80 = DIRECTION ( 'NONE',  ( -1.000000000000000000, 0.000000000000000000, 0.000000000000000000 ) ) ;
#81 = EDGE_CURVE ( 'NONE', #153, #183, #237, .T. ) ;
#82 = CYLINDRICAL_SURFACE ( 'NONE', #41, 6.000000000000000888 ) ;
#83 = VECTOR ( 'NONE', #163, 1000.000000000000000 ) ;
#84 = PERSON_AND_ORGANIZATION ( #122, #246 ) ;
#85 = VECTOR ( 'NONE', #164, 1000.000000000000000 ) ;
#86 = DIRECTION ( 'NONE',  ( -0.000000000000000000, -0.000000000000000000, -1.000000000000000000 ) ) ;
#87 = APPROVAL_DATE_TIME ( #148, #105 ) ;
#88 = DIRECTION ( 'NONE',  ( 1.000000000000000000, 0.000000000000000000, 0.000000000000000000 ) ) ;
#89 = LOCAL_TIME ( 16, 21, 12.00000000000000000, #70 ) ;
#90 = EDGE_CURVE ( 'NONE', #241, #179, #102, .T. ) ;
#91 = EDGE_CURVE ( 'NONE', #183, #134, #187, .T. ) ;
#92 = CIRCLE ( 'NONE', #73, 6.000000000000000888 ) ;
#93 = FACE_OUTER_BOUND ( 'NONE', #216, .T. ) ;
#94 = SECURITY_CLASSIFICATION ( '', '', #244 ) ;
#95 = PRODUCT_RELATED_PRODUCT_CATEGORY ( 'detail', '', ( #77 ) ) ;
#96 = AXIS2_PLACEMENT_3D ( 'NONE', #176, #23, #243 ) ;
#97 = ORIENTED_EDGE ( 'NONE', *, *, #135, .F. ) ;
#98 = CARTESIAN_POINT ( 'NONE',  ( 3.100000000000000089, 3.796405077356794918E-16, 5.000000000000000000 ) ) ;
#99 = COORDINATED_UNIVERSAL_TIME_OFFSET ( 1, 0, .AHEAD. ) ;
#100 = DIRECTION ( 'NONE',  ( 1.000000000000000000, 0.000000000000000000, 0.000000000000000000 ) ) ;
#101 = CARTESIAN_POINT ( 'NONE',  ( 0.000000000000000000, 0.000000000000000000, 5.000000000000000000 ) ) ;
#102 = CIRCLE ( 'NONE', #171, 3.100000000000000089 ) ;
#103 = CALENDAR_DATE ( 2023, 13, 2 ) ;
#104 = CARTESIAN_POINT ( 'NONE',  ( -3.100000000000000089, 0.000000000000000000, 100.0000000000000000 ) ) ;
#105 = APPROVAL ( #112, 'NEURÈENÝ' ) ;
#106 = EDGE_CURVE ( 'NONE', #117, #153, #92, .T. ) ;
#107 = LOCAL_TIME ( 16, 21, 12.00000000000000000, #99 ) ;
#108 = COORDINATED_UNIVERSAL_TIME_OFFSET ( 1, 0, .AHEAD. ) ;
#109 = LINE ( 'NONE', #229, #62 ) ;
#110 = AXIS2_PLACEMENT_3D ( 'NONE', #46, #44, #25 ) ;
#111 = CARTESIAN_POINT ( 'NONE',  ( -6.000000000000000888, 0.000000000000000000, 0.000000000000000000 ) ) ;
#112 = APPROVAL_STATUS ( 'not_yet_approved' ) ;
#113 = ORIENTED_EDGE ( 'NONE', *, *, #197, .T. ) ;
#114 = DIRECTION ( 'NONE',  ( 0.000000000000000000, 0.000000000000000000, 1.000000000000000000 ) ) ;
#115 = CARTESIAN_POINT ( 'NONE',  ( 0.000000000000000000, 0.000000000000000000, 100.0000000000000000 ) ) ;
#116 = UNCERTAINTY_MEASURE_WITH_UNIT (LENGTH_MEASURE( 1.000000000000000082E-05 ), #204, 'distance_accuracy_value', 'NONE');
#117 = VERTEX_POINT ( 'NONE', #64 ) ;
#118 = DIRECTION ( 'NONE',  ( -0.000000000000000000, -0.000000000000000000, -1.000000000000000000 ) ) ;
#119 = ADVANCED_FACE ( 'NONE', ( #146 ), #124, .T. ) ;
#120 = ORIENTED_EDGE ( 'NONE', *, *, #22, .T. ) ;
#121 = APPROVAL_STATUS ( 'not_yet_approved' ) ;
#122 = PERSON ( 'NEURÈENÝ', 'NEURÈENÝ', 'NEURÈENÝ', ('NEURÈENÝ'), ('NEURÈENÝ'), ('NEURÈENÝ') ) ;
#123 = ORIENTED_EDGE ( 'NONE', *, *, #36, .F. ) ;
#124 = CYLINDRICAL_SURFACE ( 'NONE', #32, 6.000000000000000888 ) ;
#125 = CIRCLE ( 'NONE', #254, 6.000000000000000888 ) ;
#126 = EDGE_CURVE ( 'NONE', #153, #117, #125, .T. ) ;
#127 = APPROVAL_ROLE ( '' ) ;
#128 = CARTESIAN_POINT ( 'NONE',  ( -6.000000000000000888, 0.000000000000000000, 5.000000000000000000 ) ) ;
#129 = APPROVAL_ROLE ( '' ) ;
#130 = APPLICATION_CONTEXT ( 'configuration controlled 3d designs of mechanical parts and assemblies' ) ;
#131 = CARTESIAN_POINT ( 'NONE',  ( 0.000000000000000000, 0.000000000000000000, 0.000000000000000000 ) ) ;
#132 = CLOSED_SHELL ( 'NONE', ( #202, #250, #119, #168, #156, #15, #173 ) ) ;
#133 = DATE_AND_TIME ( #251, #89 ) ;
#134 = VERTEX_POINT ( 'NONE', #111 ) ;
#135 = EDGE_CURVE ( 'NONE', #241, #236, #109, .T. ) ;
#136 = APPROVAL ( #121, 'NEURÈENÝ' ) ;
#137 = ORIENTED_EDGE ( 'NONE', *, *, #126, .F. ) ;
#138 = APPROVAL_PERSON_ORGANIZATION ( #188, #105, #129 ) ;
#139 = EDGE_LOOP ( 'NONE', ( #137, #57, #48, #20 ) ) ;
#140 = PERSON_AND_ORGANIZATION_ROLE ( 'design_owner' ) ;
#141 = CYLINDRICAL_SURFACE ( 'NONE', #110, 3.100000000000000089 ) ;
#142 = CARTESIAN_POINT ( 'NONE',  ( -3.100000000000000089, 0.000000000000000000, 5.000000000000000000 ) ) ;
#143 = CALENDAR_DATE ( 2023, 13, 2 ) ;
#144 = EDGE_CURVE ( 'NONE', #117, #134, #11, .T. ) ;
#145 = COORDINATED_UNIVERSAL_TIME_OFFSET ( 1, 0, .AHEAD. ) ;
#146 = FACE_OUTER_BOUND ( 'NONE', #162, .T. ) ;
#147 = DIRECTION ( 'NONE',  ( 0.000000000000000000, 0.000000000000000000, 1.000000000000000000 ) ) ;
#148 = DATE_AND_TIME ( #185, #55 ) ;
#149 = PERSON_AND_ORGANIZATION ( #122, #246 ) ;
#150 = EDGE_CURVE ( 'NONE', #236, #60, #175, .T. ) ;
#151 = ORIENTED_EDGE ( 'NONE', *, *, #150, .T. ) ;
#152 = CIRCLE ( 'NONE', #78, 3.100000000000000089 ) ;
#153 = VERTEX_POINT ( 'NONE', #12 ) ;
#154 = AXIS2_PLACEMENT_3D ( 'NONE', #131, #114, #169 ) ;
#155 = MANIFOLD_SOLID_BREP ( 'Pøidat vysunutím3', #132 ) ;
#156 = ADVANCED_FACE ( 'NONE', ( #93 ), #230, .F. ) ;
#157 = DIRECTION ( 'NONE',  ( 0.000000000000000000, 0.000000000000000000, 1.000000000000000000 ) ) ;
#158 = ORIENTED_EDGE ( 'NONE', *, *, #248, .F. ) ;
#159 = MECHANICAL_CONTEXT ( 'NONE', #130, 'mechanical' ) ;
#160 = PRODUCT_DEFINITION_SHAPE ( 'NONE', 'NONE',  #205 ) ;
#161 = ORIENTED_EDGE ( 'NONE', *, *, #22, .F. ) ;
#162 = EDGE_LOOP ( 'NONE', ( #203, #225, #238, #113 ) ) ;
#163 = DIRECTION ( 'NONE',  ( -0.000000000000000000, -0.000000000000000000, -1.000000000000000000 ) ) ;
#164 = DIRECTION ( 'NONE',  ( -0.000000000000000000, -0.000000000000000000, -1.000000000000000000 ) ) ;
#165 = CIRCLE ( 'NONE', #56, 6.000000000000000888 ) ;
#166 = PERSON_AND_ORGANIZATION_ROLE ( 'classification_officer' ) ;
#167 = PLANE ( 'NONE',  #65 ) ;
#168 = ADVANCED_FACE ( 'NONE', ( #192, #186 ), #167, .T. ) ;
#169 = DIRECTION ( 'NONE',  ( 1.000000000000000000, 0.000000000000000000, -0.000000000000000000 ) ) ;
#170 = CC_DESIGN_DATE_AND_TIME_ASSIGNMENT ( #133, #52, ( #205 ) ) ;
#171 = AXIS2_PLACEMENT_3D ( 'NONE', #181, #157, #245 ) ;
#172 = APPROVAL_PERSON_ORGANIZATION ( #47, #198, #127 ) ;
#173 = ADVANCED_FACE ( 'NONE', ( #208 ), #191, .T. ) ;
#174 = ORIENTED_EDGE ( 'NONE', *, *, #150, .F. ) ;
#175 = CIRCLE ( 'NONE', #34, 3.100000000000000089 ) ;
#176 = CARTESIAN_POINT ( 'NONE',  ( 0.000000000000000000, 0.000000000000000000, 100.0000000000000000 ) ) ;
#177 = CC_DESIGN_DATE_AND_TIME_ASSIGNMENT ( #21, #219, ( #94 ) ) ;
#178 = APPLICATION_PROTOCOL_DEFINITION ( 'international standard', 'config_control_design', 1994, #130 ) ;
#179 = VERTEX_POINT ( 'NONE', #228 ) ;
#180 = APPROVAL_STATUS ( 'not_yet_approved' ) ;
#181 = CARTESIAN_POINT ( 'NONE',  ( 0.000000000000000000, 0.000000000000000000, 100.0000000000000000 ) ) ;
#182 = DIRECTION ( 'NONE',  ( 0.000000000000000000, 0.000000000000000000, 1.000000000000000000 ) ) ;
#183 = VERTEX_POINT ( 'NONE', #31 ) ;
#184 = COORDINATED_UNIVERSAL_TIME_OFFSET ( 1, 0, .AHEAD. ) ;
#185 = CALENDAR_DATE ( 2023, 13, 2 ) ;
#186 = FACE_OUTER_BOUND ( 'NONE', #6, .T. ) ;
#187 = CIRCLE ( 'NONE', #27, 6.000000000000000888 ) ;
#188 = PERSON_AND_ORGANIZATION ( #122, #246 ) ;
#189 = DIRECTION ( 'NONE',  ( 0.000000000000000000, 0.000000000000000000, 1.000000000000000000 ) ) ;
#190 = CC_DESIGN_APPROVAL ( #198, ( #94 ) ) ;
#191 = PLANE ( 'NONE',  #247 ) ;
#192 = FACE_BOUND ( 'NONE', #213, .T. ) ;
#193 = ORIENTED_EDGE ( 'NONE', *, *, #36, .T. ) ;
#194 = APPROVAL_PERSON_ORGANIZATION ( #45, #136, #19 ) ;
#195 = FACE_OUTER_BOUND ( 'NONE', #37, .T. ) ;
#196 =( NAMED_UNIT ( * ) SI_UNIT ( $, .STERADIAN. ) SOLID_ANGLE_UNIT ( ) );
#197 = EDGE_CURVE ( 'NONE', #134, #183, #165, .T. ) ;
#198 = APPROVAL ( #180, 'NEURÈENÝ' ) ;
#199 = ORIENTED_EDGE ( 'NONE', *, *, #135, .T. ) ;
#200 = CARTESIAN_POINT ( 'NONE',  ( 0.000000000000000000, 0.000000000000000000, 0.000000000000000000 ) ) ;
#201 = LINE ( 'NONE', #239, #83 ) ;
#202 = ADVANCED_FACE ( 'NONE', ( #16 ), #217, .T. ) ;
#203 = ORIENTED_EDGE ( 'NONE', *, *, #81, .F. ) ;
#204 =( LENGTH_UNIT ( ) NAMED_UNIT ( * ) SI_UNIT ( .MILLI., .METRE. ) );
#205 = PRODUCT_DEFINITION ( 'NEZNÁMÝ', '', #252, #29 ) ;
#206 = DIRECTION ( 'NONE',  ( -0.000000000000000000, -0.000000000000000000, -1.000000000000000000 ) ) ;
#207 = LOCAL_TIME ( 16, 21, 12.00000000000000000, #145 ) ;
#208 = FACE_OUTER_BOUND ( 'NONE', #39, .T. ) ;
#209 = CC_DESIGN_PERSON_AND_ORGANIZATION_ASSIGNMENT ( #84, #166, ( #94 ) ) ;
#210 = VECTOR ( 'NONE', #206, 1000.000000000000000 ) ;
#211 = PERSON_AND_ORGANIZATION ( #122, #246 ) ;
#212 = CARTESIAN_POINT ( 'NONE',  ( 0.000000000000000000, 0.000000000000000000, 5.000000000000000000 ) ) ;
#213 = EDGE_LOOP ( 'NONE', ( #174, #161 ) ) ;
#214 = CIRCLE ( 'NONE', #96, 3.100000000000000089 ) ;
#215 = ORIENTED_EDGE ( 'NONE', *, *, #90, .T. ) ;
#216 = EDGE_LOOP ( 'NONE', ( #14, #42 ) ) ;
#217 = CYLINDRICAL_SURFACE ( 'NONE', #235, 3.100000000000000089 ) ;
#218 =( GEOMETRIC_REPRESENTATION_CONTEXT ( 3 ) GLOBAL_UNCERTAINTY_ASSIGNED_CONTEXT ( ( #116 ) ) GLOBAL_UNIT_ASSIGNED_CONTEXT ( ( #204, #7, #196 ) ) REPRESENTATION_CONTEXT ( 'NONE', 'WORKASPACE' ) );
#219 = DATE_TIME_ROLE ( 'classification_date' ) ;
#220 = DIRECTION ( 'NONE',  ( 0.000000000000000000, 0.000000000000000000, 1.000000000000000000 ) ) ;
#221 = APPLICATION_PROTOCOL_DEFINITION ( 'international standard', 'config_control_design', 1994, #72 ) ;
#222 = DIRECTION ( 'NONE',  ( 1.000000000000000000, 0.000000000000000000, 0.000000000000000000 ) ) ;
#223 = CARTESIAN_POINT ( 'NONE',  ( 0.000000000000000000, 0.000000000000000000, 0.000000000000000000 ) ) ;
#224 = DATE_AND_TIME ( #143, #240 ) ;
#225 = ORIENTED_EDGE ( 'NONE', *, *, #106, .F. ) ;
#226 = DIRECTION ( 'NONE',  ( -0.000000000000000000, -0.000000000000000000, -1.000000000000000000 ) ) ;
#227 = PERSON_AND_ORGANIZATION_ROLE ( 'creator' ) ;
#228 = CARTESIAN_POINT ( 'NONE',  ( 3.100000000000000089, 3.796405077356794918E-16, 100.0000000000000000 ) ) ;
#229 = CARTESIAN_POINT ( 'NONE',  ( -3.100000000000000089, 0.000000000000000000, 100.0000000000000000 ) ) ;
#230 = PLANE ( 'NONE',  #154 ) ;
#231 = DIRECTION ( 'NONE',  ( 1.000000000000000000, 0.000000000000000000, -0.000000000000000000 ) ) ;
#232 = APPROVAL_DATE_TIME ( #10, #136 ) ;
#233 = AXIS2_PLACEMENT_3D ( 'NONE', #223, #182, #43 ) ;
#234 = CC_DESIGN_APPROVAL ( #136, ( #205 ) ) ;
#235 = AXIS2_PLACEMENT_3D ( 'NONE', #115, #118, #242 ) ;
#236 = VERTEX_POINT ( 'NONE', #142 ) ;
#237 = LINE ( 'NONE', #255, #85 ) ;
#238 = ORIENTED_EDGE ( 'NONE', *, *, #144, .T. ) ;
#239 = CARTESIAN_POINT ( 'NONE',  ( 3.100000000000000089, 3.796405077356794918E-16, 100.0000000000000000 ) ) ;
#240 = LOCAL_TIME ( 16, 21, 12.00000000000000000, #184 ) ;
#241 = VERTEX_POINT ( 'NONE', #104 ) ;
#242 = DIRECTION ( 'NONE',  ( -1.000000000000000000, 0.000000000000000000, 0.000000000000000000 ) ) ;
#243 = DIRECTION ( 'NONE',  ( 1.000000000000000000, 0.000000000000000000, 0.000000000000000000 ) ) ;
#244 = SECURITY_CLASSIFICATION_LEVEL ( 'unclassified' ) ;
#245 = DIRECTION ( 'NONE',  ( 1.000000000000000000, 0.000000000000000000, 0.000000000000000000 ) ) ;
#246 = ORGANIZATION ( 'NEURÈENÝ', 'NEURÈENÝ', '' ) ;
#247 = AXIS2_PLACEMENT_3D ( 'NONE', #68, #147, #231 ) ;
#248 = EDGE_CURVE ( 'NONE', #179, #60, #201, .T. ) ;
#249 = DIRECTION ( 'NONE',  ( 0.000000000000000000, 0.000000000000000000, 1.000000000000000000 ) ) ;
#250 = ADVANCED_FACE ( 'NONE', ( #26 ), #82, .T. ) ;
#251 = CALENDAR_DATE ( 2023, 13, 2 ) ;
#252 = PRODUCT_DEFINITION_FORMATION_WITH_SPECIFIED_SOURCE ( 'LIBOVOLNÝ', '', #77, .NOT_KNOWN. ) ;
#253 = DIRECTION ( 'NONE',  ( 1.000000000000000000, 0.000000000000000000, 0.000000000000000000 ) ) ;
#254 = AXIS2_PLACEMENT_3D ( 'NONE', #9, #33, #50 ) ;
#255 = CARTESIAN_POINT ( 'NONE',  ( 6.000000000000000888, 7.347880794884120722E-16, 5.000000000000000000 ) ) ;
ENDSEC;
END-ISO-10303-21;
