ISO-10303-21;
HEADER;
FILE_DESCRIPTION (( 'STEP AP203' ),
    '1' );
FILE_NAME ('0e79.STEP',
    '2022-07-07T17:36:20',
    ( '' ),
    ( '' ),
    'SwSTEP 2.0',
    'SolidWorks 2019',
    '' );
FILE_SCHEMA (( 'CONFIG_CONTROL_DESIGN' ));
ENDSEC;

DATA;
#1 = DATE_AND_TIME ( #120, #73 ) ;
#2 = DATE_AND_TIME ( #238, #143 ) ;
#3 = CC_DESIGN_DATE_AND_TIME_ASSIGNMENT ( #181, #163, ( #84 ) ) ;
#4 = CIRCLE ( 'NONE', #77, 3.500000000000000000 ) ;
#5 = APPROVAL_ROLE ( '' ) ;
#6 = DIRECTION ( 'NONE',  ( -0.000000000000000000, -0.000000000000000000, -1.000000000000000000 ) ) ;
#7 = CC_DESIGN_PERSON_AND_ORGANIZATION_ASSIGNMENT ( #81, #141, ( #84 ) ) ;
#8 = DIRECTION ( 'NONE',  ( -0.000000000000000000, -0.000000000000000000, -1.000000000000000000 ) ) ;
#9 = DIRECTION ( 'NONE',  ( -0.000000000000000000, -0.000000000000000000, -1.000000000000000000 ) ) ;
#10 = AXIS2_PLACEMENT_3D ( 'NONE', #46, #123, #128 ) ;
#11 = APPROVAL_PERSON_ORGANIZATION ( #45, #102, #5 ) ;
#12 = FACE_OUTER_BOUND ( 'NONE', #112, .T. ) ;
#13 = FACE_OUTER_BOUND ( 'NONE', #133, .T. ) ;
#14 = PLANE ( 'NONE',  #252 ) ;
#15 = CIRCLE ( 'NONE', #10, 3.500000000000000000 ) ;
#16 = CARTESIAN_POINT ( 'NONE',  ( 0.000000000000000000, 0.000000000000000000, 5.000000000000000000 ) ) ;
#17 = CARTESIAN_POINT ( 'NONE',  ( -6.000000000000000888, 0.000000000000000000, 0.000000000000000000 ) ) ;
#18 = DIRECTION ( 'NONE',  ( 1.000000000000000000, 0.000000000000000000, 0.000000000000000000 ) ) ;
#19 = AXIS2_PLACEMENT_3D ( 'NONE', #225, #185, #224 ) ;
#20 = AXIS2_PLACEMENT_3D ( 'NONE', #144, #66, #162 ) ;
#21 = APPROVAL_STATUS ( 'not_yet_approved' ) ;
#22 = DATE_TIME_ROLE ( 'creation_date' ) ;
#23 = EDGE_CURVE ( 'NONE', #93, #157, #132, .T. ) ;
#24 = COORDINATED_UNIVERSAL_TIME_OFFSET ( 1, 0, .AHEAD. ) ;
#25 = PERSON_AND_ORGANIZATION ( #230, #164 ) ;
#26 = DIRECTION ( 'NONE',  ( 0.000000000000000000, 0.000000000000000000, 1.000000000000000000 ) ) ;
#27 = CC_DESIGN_SECURITY_CLASSIFICATION ( #84, ( #197 ) ) ;
#28 = APPLICATION_PROTOCOL_DEFINITION ( 'international standard', 'config_control_design', 1994, #171 ) ;
#29 = EDGE_CURVE ( 'NONE', #59, #96, #206, .T. ) ;
#30 = DIRECTION ( 'NONE',  ( 0.000000000000000000, 0.000000000000000000, 1.000000000000000000 ) ) ;
#31 = DIRECTION ( 'NONE',  ( 1.000000000000000000, 0.000000000000000000, -0.000000000000000000 ) ) ;
#32 = DIRECTION ( 'NONE',  ( 0.000000000000000000, 0.000000000000000000, 1.000000000000000000 ) ) ;
#33 = DIRECTION ( 'NONE',  ( -1.000000000000000000, 0.000000000000000000, 0.000000000000000000 ) ) ;
#34 = ADVANCED_FACE ( 'NONE', ( #216 ), #14, .T. ) ;
#35 = DIRECTION ( 'NONE',  ( 1.000000000000000000, 0.000000000000000000, 0.000000000000000000 ) ) ;
#36 = DIRECTION ( 'NONE',  ( 0.000000000000000000, 0.000000000000000000, 1.000000000000000000 ) ) ;
#37 = PRODUCT_RELATED_PRODUCT_CATEGORY ( 'detail', '', ( #127 ) ) ;
#38 = DIRECTION ( 'NONE',  ( -1.000000000000000000, 0.000000000000000000, 0.000000000000000000 ) ) ;
#39 = ORIENTED_EDGE ( 'NONE', *, *, #251, .F. ) ;
#40 = ORIENTED_EDGE ( 'NONE', *, *, #156, .T. ) ;
#41 = SHAPE_DEFINITION_REPRESENTATION ( #65, #113 ) ;
#42 = PERSON_AND_ORGANIZATION ( #230, #164 ) ;
#43 = LOCAL_TIME ( 19, 36, 20.00000000000000000, #105 ) ;
#44 = APPROVAL_DATE_TIME ( #2, #220 ) ;
#45 = PERSON_AND_ORGANIZATION ( #230, #164 ) ;
#46 = CARTESIAN_POINT ( 'NONE',  ( 0.000000000000000000, 0.000000000000000000, 165.0000000000000000 ) ) ;
#47 = PRODUCT_DEFINITION ( 'NEZNÁMÝ', '', #197, #187 ) ;
#48 =( NAMED_UNIT ( * ) SI_UNIT ( $, .STERADIAN. ) SOLID_ANGLE_UNIT ( ) );
#49 = VECTOR ( 'NONE', #227, 1000.000000000000000 ) ;
#50 = CARTESIAN_POINT ( 'NONE',  ( 0.000000000000000000, 0.000000000000000000, 5.000000000000000000 ) ) ;
#51 = CARTESIAN_POINT ( 'NONE',  ( 3.500000000000000000, 4.286263797015736595E-16, 5.000000000000000000 ) ) ;
#52 = DIRECTION ( 'NONE',  ( 1.000000000000000000, 0.000000000000000000, -0.000000000000000000 ) ) ;
#53 = DIRECTION ( 'NONE',  ( 0.000000000000000000, 0.000000000000000000, 1.000000000000000000 ) ) ;
#54 = ORIENTED_EDGE ( 'NONE', *, *, #161, .F. ) ;
#55 = ADVANCED_FACE ( 'NONE', ( #114 ), #192, .T. ) ;
#56 = ORIENTED_EDGE ( 'NONE', *, *, #165, .T. ) ;
#57 = AXIS2_PLACEMENT_3D ( 'NONE', #149, #26, #86 ) ;
#58 = ORIENTED_EDGE ( 'NONE', *, *, #161, .T. ) ;
#59 = VERTEX_POINT ( 'NONE', #17 ) ;
#60 = PERSON_AND_ORGANIZATION ( #230, #164 ) ;
#61 = APPROVAL_STATUS ( 'not_yet_approved' ) ;
#62 = MANIFOLD_SOLID_BREP ( 'Pøidat vysunutím3', #202 ) ;
#63 = VECTOR ( 'NONE', #8, 1000.000000000000000 ) ;
#64 = PERSON_AND_ORGANIZATION_ROLE ( 'creator' ) ;
#65 = PRODUCT_DEFINITION_SHAPE ( 'NONE', 'NONE',  #47 ) ;
#66 = DIRECTION ( 'NONE',  ( 0.000000000000000000, 0.000000000000000000, 1.000000000000000000 ) ) ;
#67 = DIRECTION ( 'NONE',  ( -1.000000000000000000, 0.000000000000000000, 0.000000000000000000 ) ) ;
#68 = CARTESIAN_POINT ( 'NONE',  ( 0.000000000000000000, 0.000000000000000000, 165.0000000000000000 ) ) ;
#69 =( GEOMETRIC_REPRESENTATION_CONTEXT ( 3 ) GLOBAL_UNCERTAINTY_ASSIGNED_CONTEXT ( ( #169 ) ) GLOBAL_UNIT_ASSIGNED_CONTEXT ( ( #240, #85, #48 ) ) REPRESENTATION_CONTEXT ( 'NONE', 'WORKASPACE' ) );
#70 = CYLINDRICAL_SURFACE ( 'NONE', #19, 6.000000000000000888 ) ;
#71 = CARTESIAN_POINT ( 'NONE',  ( 6.000000000000000888, 7.347880794884120722E-16, 5.000000000000000000 ) ) ;
#72 = CARTESIAN_POINT ( 'NONE',  ( -3.500000000000000000, 0.000000000000000000, 165.0000000000000000 ) ) ;
#73 = LOCAL_TIME ( 19, 36, 20.00000000000000000, #137 ) ;
#74 = CARTESIAN_POINT ( 'NONE',  ( 0.000000000000000000, 0.000000000000000000, 165.0000000000000000 ) ) ;
#75 = ORIENTED_EDGE ( 'NONE', *, *, #98, .F. ) ;
#76 = ORIENTED_EDGE ( 'NONE', *, *, #134, .F. ) ;
#77 = AXIS2_PLACEMENT_3D ( 'NONE', #92, #87, #91 ) ;
#78 = VECTOR ( 'NONE', #244, 1000.000000000000000 ) ;
#79 = APPROVAL_DATE_TIME ( #1, #218 ) ;
#80 = ADVANCED_FACE ( 'NONE', ( #95 ), #104, .T. ) ;
#81 = PERSON_AND_ORGANIZATION ( #230, #164 ) ;
#82 = CALENDAR_DATE ( 2022, 7, 7 ) ;
#83 = AXIS2_PLACEMENT_3D ( 'NONE', #16, #94, #38 ) ;
#84 = SECURITY_CLASSIFICATION ( '', '', #138 ) ;
#85 =( NAMED_UNIT ( * ) PLANE_ANGLE_UNIT ( ) SI_UNIT ( $, .RADIAN. ) );
#86 = DIRECTION ( 'NONE',  ( 1.000000000000000000, 0.000000000000000000, 0.000000000000000000 ) ) ;
#87 = DIRECTION ( 'NONE',  ( 0.000000000000000000, 0.000000000000000000, 1.000000000000000000 ) ) ;
#88 = DIRECTION ( 'NONE',  ( 1.000000000000000000, 0.000000000000000000, 0.000000000000000000 ) ) ;
#89 = EDGE_CURVE ( 'NONE', #154, #234, #15, .T. ) ;
#90 = CC_DESIGN_APPROVAL ( #102, ( #47 ) ) ;
#91 = DIRECTION ( 'NONE',  ( 1.000000000000000000, 0.000000000000000000, 0.000000000000000000 ) ) ;
#92 = CARTESIAN_POINT ( 'NONE',  ( 0.000000000000000000, 0.000000000000000000, 5.000000000000000000 ) ) ;
#93 = VERTEX_POINT ( 'NONE', #51 ) ;
#94 = DIRECTION ( 'NONE',  ( -0.000000000000000000, -0.000000000000000000, -1.000000000000000000 ) ) ;
#95 = FACE_OUTER_BOUND ( 'NONE', #229, .T. ) ;
#96 = VERTEX_POINT ( 'NONE', #150 ) ;
#97 = CIRCLE ( 'NONE', #151, 3.500000000000000000 ) ;
#98 = EDGE_CURVE ( 'NONE', #236, #196, #147, .T. ) ;
#99 = APPROVAL_ROLE ( '' ) ;
#100 = PERSON_AND_ORGANIZATION ( #230, #164 ) ;
#101 = COORDINATED_UNIVERSAL_TIME_OFFSET ( 1, 0, .AHEAD. ) ;
#102 = APPROVAL ( #61, 'NEURÈENÝ' ) ;
#103 = PERSON_AND_ORGANIZATION_ROLE ( 'design_supplier' ) ;
#104 = CYLINDRICAL_SURFACE ( 'NONE', #140, 3.500000000000000000 ) ;
#105 = COORDINATED_UNIVERSAL_TIME_OFFSET ( 1, 0, .AHEAD. ) ;
#106 = LINE ( 'NONE', #184, #49 ) ;
#107 = ADVANCED_FACE ( 'NONE', ( #109 ), #245, .T. ) ;
#108 = DIRECTION ( 'NONE',  ( 0.000000000000000000, 0.000000000000000000, 1.000000000000000000 ) ) ;
#109 = FACE_OUTER_BOUND ( 'NONE', #153, .T. ) ;
#110 = DIRECTION ( 'NONE',  ( 1.000000000000000000, 0.000000000000000000, 0.000000000000000000 ) ) ;
#111 = EDGE_CURVE ( 'NONE', #234, #154, #97, .T. ) ;
#112 = EDGE_LOOP ( 'NONE', ( #130, #190 ) ) ;
#113 = ADVANCED_BREP_SHAPE_REPRESENTATION ( '0e79', ( #62, #20 ), #69 ) ;
#114 = FACE_OUTER_BOUND ( 'NONE', #200, .T. ) ;
#115 = ORIENTED_EDGE ( 'NONE', *, *, #89, .T. ) ;
#116 = CARTESIAN_POINT ( 'NONE',  ( 0.000000000000000000, 0.000000000000000000, 5.000000000000000000 ) ) ;
#117 = CC_DESIGN_DATE_AND_TIME_ASSIGNMENT ( #222, #22, ( #47 ) ) ;
#118 = AXIS2_PLACEMENT_3D ( 'NONE', #172, #243, #52 ) ;
#119 = ORIENTED_EDGE ( 'NONE', *, *, #23, .F. ) ;
#120 = CALENDAR_DATE ( 2022, 7, 7 ) ;
#121 = APPROVAL_DATE_TIME ( #180, #102 ) ;
#122 = PERSON_AND_ORGANIZATION_ROLE ( 'creator' ) ;
#123 = DIRECTION ( 'NONE',  ( 0.000000000000000000, 0.000000000000000000, 1.000000000000000000 ) ) ;
#124 = APPLICATION_PROTOCOL_DEFINITION ( 'international standard', 'config_control_design', 1994, #233 ) ;
#125 = CARTESIAN_POINT ( 'NONE',  ( -6.000000000000000888, 0.000000000000000000, 5.000000000000000000 ) ) ;
#126 = PLANE ( 'NONE',  #118 ) ;
#127 = PRODUCT ( '0e79', '0e79', '', ( #239 ) ) ;
#128 = DIRECTION ( 'NONE',  ( 1.000000000000000000, 0.000000000000000000, 0.000000000000000000 ) ) ;
#129 = AXIS2_PLACEMENT_3D ( 'NONE', #50, #108, #205 ) ;
#130 = ORIENTED_EDGE ( 'NONE', *, *, #98, .T. ) ;
#131 = ORIENTED_EDGE ( 'NONE', *, *, #241, .F. ) ;
#132 = CIRCLE ( 'NONE', #255, 3.500000000000000000 ) ;
#133 = EDGE_LOOP ( 'NONE', ( #231, #39 ) ) ;
#134 = EDGE_CURVE ( 'NONE', #196, #96, #106, .T. ) ;
#135 = EDGE_LOOP ( 'NONE', ( #131, #232, #198, #194 ) ) ;
#136 = CC_DESIGN_APPROVAL ( #220, ( #197 ) ) ;
#137 = COORDINATED_UNIVERSAL_TIME_OFFSET ( 1, 0, .AHEAD. ) ;
#138 = SECURITY_CLASSIFICATION_LEVEL ( 'unclassified' ) ;
#139 = AXIS2_PLACEMENT_3D ( 'NONE', #167, #30, #88 ) ;
#140 = AXIS2_PLACEMENT_3D ( 'NONE', #182, #9, #33 ) ;
#141 = PERSON_AND_ORGANIZATION_ROLE ( 'classification_officer' ) ;
#142 = CC_DESIGN_PERSON_AND_ORGANIZATION_ASSIGNMENT ( #60, #103, ( #197 ) ) ;
#143 = LOCAL_TIME ( 19, 36, 20.00000000000000000, #177 ) ;
#144 = CARTESIAN_POINT ( 'NONE',  ( 0.000000000000000000, 0.000000000000000000, 0.000000000000000000 ) ) ;
#145 = DIRECTION ( 'NONE',  ( -0.000000000000000000, -0.000000000000000000, -1.000000000000000000 ) ) ;
#146 = CC_DESIGN_PERSON_AND_ORGANIZATION_ASSIGNMENT ( #100, #221, ( #127 ) ) ;
#147 = CIRCLE ( 'NONE', #139, 6.000000000000000888 ) ;
#148 = PLANE ( 'NONE',  #247 ) ;
#149 = CARTESIAN_POINT ( 'NONE',  ( 0.000000000000000000, 0.000000000000000000, 0.000000000000000000 ) ) ;
#150 = CARTESIAN_POINT ( 'NONE',  ( 6.000000000000000888, 7.347880794884120722E-16, 0.000000000000000000 ) ) ;
#151 = AXIS2_PLACEMENT_3D ( 'NONE', #213, #32, #110 ) ;
#152 = CC_DESIGN_PERSON_AND_ORGANIZATION_ASSIGNMENT ( #203, #122, ( #47 ) ) ;
#153 = EDGE_LOOP ( 'NONE', ( #54, #159, #40, #56 ) ) ;
#154 = VERTEX_POINT ( 'NONE', #170 ) ;
#155 = ORIENTED_EDGE ( 'NONE', *, *, #156, .F. ) ;
#156 = EDGE_CURVE ( 'NONE', #234, #157, #208, .T. ) ;
#157 = VERTEX_POINT ( 'NONE', #189 ) ;
#158 = EDGE_LOOP ( 'NONE', ( #217, #119 ) ) ;
#159 = ORIENTED_EDGE ( 'NONE', *, *, #111, .F. ) ;
#160 = CALENDAR_DATE ( 2022, 7, 7 ) ;
#161 = EDGE_CURVE ( 'NONE', #154, #93, #228, .T. ) ;
#162 = DIRECTION ( 'NONE',  ( 1.000000000000000000, 0.000000000000000000, 0.000000000000000000 ) ) ;
#163 = DATE_TIME_ROLE ( 'classification_date' ) ;
#164 = ORGANIZATION ( 'NEURÈENÝ', 'NEURÈENÝ', '' ) ;
#165 = EDGE_CURVE ( 'NONE', #157, #93, #4, .T. ) ;
#166 = CARTESIAN_POINT ( 'NONE',  ( -3.500000000000000000, 0.000000000000000000, 165.0000000000000000 ) ) ;
#167 = CARTESIAN_POINT ( 'NONE',  ( 0.000000000000000000, 0.000000000000000000, 5.000000000000000000 ) ) ;
#168 = CARTESIAN_POINT ( 'NONE',  ( 0.000000000000000000, 0.000000000000000000, 0.000000000000000000 ) ) ;
#169 = UNCERTAINTY_MEASURE_WITH_UNIT (LENGTH_MEASURE( 1.000000000000000082E-05 ), #240, 'distance_accuracy_value', 'NONE');
#170 = CARTESIAN_POINT ( 'NONE',  ( 3.500000000000000000, 4.286263797015736595E-16, 165.0000000000000000 ) ) ;
#171 = APPLICATION_CONTEXT ( 'configuration controlled 3d designs of mechanical parts and assemblies' ) ;
#172 = CARTESIAN_POINT ( 'NONE',  ( 0.000000000000000000, 0.000000000000000000, 5.000000000000000000 ) ) ;
#173 = ORIENTED_EDGE ( 'NONE', *, *, #29, .T. ) ;
#174 = DIRECTION ( 'NONE',  ( 0.000000000000000000, 0.000000000000000000, 1.000000000000000000 ) ) ;
#175 = ORIENTED_EDGE ( 'NONE', *, *, #89, .F. ) ;
#176 = PERSON_AND_ORGANIZATION ( #230, #164 ) ;
#177 = COORDINATED_UNIVERSAL_TIME_OFFSET ( 1, 0, .AHEAD. ) ;
#178 = CIRCLE ( 'NONE', #129, 6.000000000000000888 ) ;
#179 = APPROVAL_ROLE ( '' ) ;
#180 = DATE_AND_TIME ( #160, #43 ) ;
#181 = DATE_AND_TIME ( #82, #193 ) ;
#182 = CARTESIAN_POINT ( 'NONE',  ( 0.000000000000000000, 0.000000000000000000, 165.0000000000000000 ) ) ;
#183 = CARTESIAN_POINT ( 'NONE',  ( 3.500000000000000000, 4.286263797015736595E-16, 165.0000000000000000 ) ) ;
#184 = CARTESIAN_POINT ( 'NONE',  ( 6.000000000000000888, 7.347880794884120722E-16, 5.000000000000000000 ) ) ;
#185 = DIRECTION ( 'NONE',  ( -0.000000000000000000, -0.000000000000000000, -1.000000000000000000 ) ) ;
#186 = VECTOR ( 'NONE', #145, 1000.000000000000000 ) ;
#187 = DESIGN_CONTEXT ( 'detailed design', #171, 'design' ) ;
#188 = CC_DESIGN_PERSON_AND_ORGANIZATION_ASSIGNMENT ( #25, #64, ( #197 ) ) ;
#189 = CARTESIAN_POINT ( 'NONE',  ( -3.500000000000000000, 0.000000000000000000, 5.000000000000000000 ) ) ;
#190 = ORIENTED_EDGE ( 'NONE', *, *, #241, .T. ) ;
#191 = ADVANCED_FACE ( 'NONE', ( #242 ), #70, .T. ) ;
#192 = CYLINDRICAL_SURFACE ( 'NONE', #83, 6.000000000000000888 ) ;
#193 = LOCAL_TIME ( 19, 36, 20.00000000000000000, #101 ) ;
#194 = ORIENTED_EDGE ( 'NONE', *, *, #254, .F. ) ;
#195 = CARTESIAN_POINT ( 'NONE',  ( 0.000000000000000000, 0.000000000000000000, 0.000000000000000000 ) ) ;
#196 = VERTEX_POINT ( 'NONE', #71 ) ;
#197 = PRODUCT_DEFINITION_FORMATION_WITH_SPECIFIED_SOURCE ( 'LIBOVOLNÝ', '', #127, .NOT_KNOWN. ) ;
#198 = ORIENTED_EDGE ( 'NONE', *, *, #251, .T. ) ;
#199 = CALENDAR_DATE ( 2022, 7, 7 ) ;
#200 = EDGE_LOOP ( 'NONE', ( #76, #75, #250, #173 ) ) ;
#201 = ADVANCED_FACE ( 'NONE', ( #209, #12 ), #126, .T. ) ;
#202 = CLOSED_SHELL ( 'NONE', ( #80, #191, #55, #201, #210, #107, #34 ) ) ;
#203 = PERSON_AND_ORGANIZATION ( #230, #164 ) ;
#204 = APPROVAL_STATUS ( 'not_yet_approved' ) ;
#205 = DIRECTION ( 'NONE',  ( 1.000000000000000000, 0.000000000000000000, 0.000000000000000000 ) ) ;
#206 = CIRCLE ( 'NONE', #237, 6.000000000000000888 ) ;
#207 = CIRCLE ( 'NONE', #57, 6.000000000000000888 ) ;
#208 = LINE ( 'NONE', #166, #78 ) ;
#209 = FACE_BOUND ( 'NONE', #158, .T. ) ;
#210 = ADVANCED_FACE ( 'NONE', ( #13 ), #148, .F. ) ;
#211 = LINE ( 'NONE', #125, #186 ) ;
#212 = AXIS2_PLACEMENT_3D ( 'NONE', #68, #6, #67 ) ;
#213 = CARTESIAN_POINT ( 'NONE',  ( 0.000000000000000000, 0.000000000000000000, 165.0000000000000000 ) ) ;
#214 = ORIENTED_EDGE ( 'NONE', *, *, #23, .T. ) ;
#215 = DIRECTION ( 'NONE',  ( 1.000000000000000000, 0.000000000000000000, -0.000000000000000000 ) ) ;
#216 = FACE_OUTER_BOUND ( 'NONE', #249, .T. ) ;
#217 = ORIENTED_EDGE ( 'NONE', *, *, #165, .F. ) ;
#218 = APPROVAL ( #21, 'NEURÈENÝ' ) ;
#219 = CC_DESIGN_APPROVAL ( #218, ( #84 ) ) ;
#220 = APPROVAL ( #204, 'NEURÈENÝ' ) ;
#221 = PERSON_AND_ORGANIZATION_ROLE ( 'design_owner' ) ;
#222 = DATE_AND_TIME ( #199, #235 ) ;
#223 = APPROVAL_PERSON_ORGANIZATION ( #42, #220, #99 ) ;
#224 = DIRECTION ( 'NONE',  ( -1.000000000000000000, 0.000000000000000000, 0.000000000000000000 ) ) ;
#225 = CARTESIAN_POINT ( 'NONE',  ( 0.000000000000000000, 0.000000000000000000, 5.000000000000000000 ) ) ;
#226 = CARTESIAN_POINT ( 'NONE',  ( -6.000000000000000888, 0.000000000000000000, 5.000000000000000000 ) ) ;
#227 = DIRECTION ( 'NONE',  ( -0.000000000000000000, -0.000000000000000000, -1.000000000000000000 ) ) ;
#228 = LINE ( 'NONE', #183, #63 ) ;
#229 = EDGE_LOOP ( 'NONE', ( #175, #58, #214, #155 ) ) ;
#230 = PERSON ( 'NEURÈENÝ', 'NEURÈENÝ', 'NEURÈENÝ', ('NEURÈENÝ'), ('NEURÈENÝ'), ('NEURÈENÝ') ) ;
#231 = ORIENTED_EDGE ( 'NONE', *, *, #29, .F. ) ;
#232 = ORIENTED_EDGE ( 'NONE', *, *, #134, .T. ) ;
#233 = APPLICATION_CONTEXT ( 'configuration controlled 3d designs of mechanical parts and assemblies' ) ;
#234 = VERTEX_POINT ( 'NONE', #72 ) ;
#235 = LOCAL_TIME ( 19, 36, 20.00000000000000000, #24 ) ;
#236 = VERTEX_POINT ( 'NONE', #226 ) ;
#237 = AXIS2_PLACEMENT_3D ( 'NONE', #195, #174, #18 ) ;
#238 = CALENDAR_DATE ( 2022, 7, 7 ) ;
#239 = MECHANICAL_CONTEXT ( 'NONE', #233, 'mechanical' ) ;
#240 =( LENGTH_UNIT ( ) NAMED_UNIT ( * ) SI_UNIT ( .MILLI., .METRE. ) );
#241 = EDGE_CURVE ( 'NONE', #196, #236, #178, .T. ) ;
#242 = FACE_OUTER_BOUND ( 'NONE', #135, .T. ) ;
#243 = DIRECTION ( 'NONE',  ( 0.000000000000000000, 0.000000000000000000, 1.000000000000000000 ) ) ;
#244 = DIRECTION ( 'NONE',  ( -0.000000000000000000, -0.000000000000000000, -1.000000000000000000 ) ) ;
#245 = CYLINDRICAL_SURFACE ( 'NONE', #212, 3.500000000000000000 ) ;
#246 = DIRECTION ( 'NONE',  ( 0.000000000000000000, 0.000000000000000000, 1.000000000000000000 ) ) ;
#247 = AXIS2_PLACEMENT_3D ( 'NONE', #168, #246, #31 ) ;
#248 = ORIENTED_EDGE ( 'NONE', *, *, #111, .T. ) ;
#249 = EDGE_LOOP ( 'NONE', ( #248, #115 ) ) ;
#250 = ORIENTED_EDGE ( 'NONE', *, *, #254, .T. ) ;
#251 = EDGE_CURVE ( 'NONE', #96, #59, #207, .T. ) ;
#252 = AXIS2_PLACEMENT_3D ( 'NONE', #74, #53, #215 ) ;
#253 = APPROVAL_PERSON_ORGANIZATION ( #176, #218, #179 ) ;
#254 = EDGE_CURVE ( 'NONE', #236, #59, #211, .T. ) ;
#255 = AXIS2_PLACEMENT_3D ( 'NONE', #116, #36, #35 ) ;
ENDSEC;
END-ISO-10303-21;
