ISO-10303-21;
HEADER;
FILE_DESCRIPTION (( 'STEP AP203' ),
    '1' );
FILE_NAME ('f62c.STEP',
    '2022-07-07T18:00:56',
    ( '' ),
    ( '' ),
    'SwSTEP 2.0',
    'SolidWorks 2019',
    '' );
FILE_SCHEMA (( 'CONFIG_CONTROL_DESIGN' ));
ENDSEC;

DATA;
#1 = AXIS2_PLACEMENT_3D ( 'NONE', #236, #154, #78 ) ;
#2 = DIRECTION ( 'NONE',  ( -0.000000000000000000, -0.000000000000000000, -1.000000000000000000 ) ) ;
#3 = DIRECTION ( 'NONE',  ( 1.000000000000000000, 0.000000000000000000, 0.000000000000000000 ) ) ;
#4 = COORDINATED_UNIVERSAL_TIME_OFFSET ( 1, 0, .AHEAD. ) ;
#5 = LOCAL_TIME ( 20, 0, 56.00000000000000000, #8 ) ;
#6 = CARTESIAN_POINT ( 'NONE',  ( -1.000000000000000000, 0.000000000000000000, 2.000000000000000000 ) ) ;
#7 = EDGE_LOOP ( 'NONE', ( #121, #231 ) ) ;
#8 = COORDINATED_UNIVERSAL_TIME_OFFSET ( 1, 0, .AHEAD. ) ;
#9 = ORIENTED_EDGE ( 'NONE', *, *, #166, .T. ) ;
#10 = DIRECTION ( 'NONE',  ( -0.000000000000000000, -0.000000000000000000, -1.000000000000000000 ) ) ;
#11 = AXIS2_PLACEMENT_3D ( 'NONE', #57, #127, #241 ) ;
#12 = PERSON_AND_ORGANIZATION ( #21, #225 ) ;
#13 = PRODUCT_RELATED_PRODUCT_CATEGORY ( 'detail', '', ( #174 ) ) ;
#14 = DIRECTION ( 'NONE',  ( 1.000000000000000000, 0.000000000000000000, 0.000000000000000000 ) ) ;
#15 = ORIENTED_EDGE ( 'NONE', *, *, #80, .T. ) ;
#16 = DIRECTION ( 'NONE',  ( 0.000000000000000000, 0.000000000000000000, 1.000000000000000000 ) ) ;
#17 = DIRECTION ( 'NONE',  ( 1.000000000000000000, 0.000000000000000000, 0.000000000000000000 ) ) ;
#18 = CC_DESIGN_APPROVAL ( #97, ( #43 ) ) ;
#19 = CC_DESIGN_PERSON_AND_ORGANIZATION_ASSIGNMENT ( #54, #232, ( #156 ) ) ;
#20 = FACE_BOUND ( 'NONE', #7, .T. ) ;
#21 = PERSON ( 'NEURÈENÝ', 'NEURÈENÝ', 'NEURÈENÝ', ('NEURÈENÝ'), ('NEURÈENÝ'), ('NEURÈENÝ') ) ;
#22 = APPROVAL_PERSON_ORGANIZATION ( #59, #148, #169 ) ;
#23 = CARTESIAN_POINT ( 'NONE',  ( 0.000000000000000000, 0.000000000000000000, 402.0000000000000000 ) ) ;
#24 = DIRECTION ( 'NONE',  ( 0.000000000000000000, 0.000000000000000000, 1.000000000000000000 ) ) ;
#25 = CARTESIAN_POINT ( 'NONE',  ( 0.000000000000000000, 0.000000000000000000, 2.000000000000000000 ) ) ;
#26 =( NAMED_UNIT ( * ) PLANE_ANGLE_UNIT ( ) SI_UNIT ( $, .RADIAN. ) );
#27 = AXIS2_PLACEMENT_3D ( 'NONE', #25, #24, #181 ) ;
#28 = EDGE_CURVE ( 'NONE', #69, #168, #203, .T. ) ;
#29 = APPROVAL_ROLE ( '' ) ;
#30 = ORIENTED_EDGE ( 'NONE', *, *, #132, .T. ) ;
#31 = DATE_AND_TIME ( #165, #5 ) ;
#32 = CIRCLE ( 'NONE', #175, 2.000000000000000000 ) ;
#33 = DIRECTION ( 'NONE',  ( 0.000000000000000000, 0.000000000000000000, 1.000000000000000000 ) ) ;
#34 = VERTEX_POINT ( 'NONE', #6 ) ;
#35 = ADVANCED_FACE ( 'NONE', ( #149 ), #185, .F. ) ;
#36 = CARTESIAN_POINT ( 'NONE',  ( 0.000000000000000000, 0.000000000000000000, 0.000000000000000000 ) ) ;
#37 = CYLINDRICAL_SURFACE ( 'NONE', #183, 2.000000000000000000 ) ;
#38 = CARTESIAN_POINT ( 'NONE',  ( -2.000000000000000000, 0.000000000000000000, 2.000000000000000000 ) ) ;
#39 = ADVANCED_FACE ( 'NONE', ( #58 ), #37, .T. ) ;
#40 = CARTESIAN_POINT ( 'NONE',  ( 2.000000000000000000, 2.449293598294706414E-16, 0.000000000000000000 ) ) ;
#41 = DIRECTION ( 'NONE',  ( -0.000000000000000000, -0.000000000000000000, -1.000000000000000000 ) ) ;
#42 = CLOSED_SHELL ( 'NONE', ( #213, #39, #136, #180, #35, #135, #118 ) ) ;
#43 = PRODUCT_DEFINITION ( 'NEZNÁMÝ', '', #156, #224 ) ;
#44 = COORDINATED_UNIVERSAL_TIME_OFFSET ( 1, 0, .AHEAD. ) ;
#45 = CARTESIAN_POINT ( 'NONE',  ( 0.000000000000000000, 0.000000000000000000, 0.000000000000000000 ) ) ;
#46 = APPROVAL_PERSON_ORGANIZATION ( #49, #97, #29 ) ;
#47 = DATE_AND_TIME ( #140, #211 ) ;
#48 = EDGE_CURVE ( 'NONE', #125, #146, #220, .T. ) ;
#49 = PERSON_AND_ORGANIZATION ( #21, #225 ) ;
#50 = ORIENTED_EDGE ( 'NONE', *, *, #80, .F. ) ;
#51 = APPROVAL_PERSON_ORGANIZATION ( #222, #160, #218 ) ;
#52 = ORIENTED_EDGE ( 'NONE', *, *, #197, .T. ) ;
#53 = VECTOR ( 'NONE', #94, 1000.000000000000000 ) ;
#54 = PERSON_AND_ORGANIZATION ( #21, #225 ) ;
#55 = DIRECTION ( 'NONE',  ( 1.000000000000000000, 0.000000000000000000, -0.000000000000000000 ) ) ;
#56 = PERSON_AND_ORGANIZATION_ROLE ( 'creator' ) ;
#57 = CARTESIAN_POINT ( 'NONE',  ( 0.000000000000000000, 0.000000000000000000, 2.000000000000000000 ) ) ;
#58 = FACE_OUTER_BOUND ( 'NONE', #141, .T. ) ;
#59 = PERSON_AND_ORGANIZATION ( #21, #225 ) ;
#60 = DIRECTION ( 'NONE',  ( 0.000000000000000000, 0.000000000000000000, 1.000000000000000000 ) ) ;
#61 = CARTESIAN_POINT ( 'NONE',  ( -1.000000000000000000, 0.000000000000000000, 402.0000000000000000 ) ) ;
#62 = DIRECTION ( 'NONE',  ( 0.000000000000000000, 0.000000000000000000, 1.000000000000000000 ) ) ;
#63 = CC_DESIGN_PERSON_AND_ORGANIZATION_ASSIGNMENT ( #238, #137, ( #43 ) ) ;
#64 = APPLICATION_CONTEXT ( 'configuration controlled 3d designs of mechanical parts and assemblies' ) ;
#65 = EDGE_CURVE ( 'NONE', #95, #182, #32, .T. ) ;
#66 = DIRECTION ( 'NONE',  ( -1.000000000000000000, 0.000000000000000000, 0.000000000000000000 ) ) ;
#67 = CIRCLE ( 'NONE', #27, 2.000000000000000000 ) ;
#68 = CALENDAR_DATE ( 2022, 7, 7 ) ;
#69 = VERTEX_POINT ( 'NONE', #40 ) ;
#70 = ORIENTED_EDGE ( 'NONE', *, *, #197, .F. ) ;
#71 = EDGE_CURVE ( 'NONE', #125, #104, #233, .T. ) ;
#72 = EDGE_LOOP ( 'NONE', ( #201, #91 ) ) ;
#73 = CIRCLE ( 'NONE', #248, 1.000000000000000000 ) ;
#74 = CARTESIAN_POINT ( 'NONE',  ( 0.000000000000000000, 0.000000000000000000, 402.0000000000000000 ) ) ;
#75 = ORIENTED_EDGE ( 'NONE', *, *, #48, .F. ) ;
#76 = APPROVAL_DATE_TIME ( #251, #148 ) ;
#77 = LINE ( 'NONE', #38, #117 ) ;
#78 = DIRECTION ( 'NONE',  ( -1.000000000000000000, 0.000000000000000000, 0.000000000000000000 ) ) ;
#79 = CARTESIAN_POINT ( 'NONE',  ( 1.000000000000000000, 1.224646799147353207E-16, 402.0000000000000000 ) ) ;
#80 = EDGE_CURVE ( 'NONE', #168, #69, #83, .T. ) ;
#81 = LOCAL_TIME ( 20, 0, 56.00000000000000000, #107 ) ;
#82 = EDGE_CURVE ( 'NONE', #182, #69, #98, .T. ) ;
#83 = CIRCLE ( 'NONE', #228, 2.000000000000000000 ) ;
#84 = CARTESIAN_POINT ( 'NONE',  ( 2.000000000000000000, 2.449293598294706414E-16, 2.000000000000000000 ) ) ;
#85 = PERSON_AND_ORGANIZATION ( #21, #225 ) ;
#86 = APPROVAL_DATE_TIME ( #100, #97 ) ;
#87 = LOCAL_TIME ( 20, 0, 56.00000000000000000, #186 ) ;
#88 = DATE_TIME_ROLE ( 'creation_date' ) ;
#89 = ORIENTED_EDGE ( 'NONE', *, *, #166, .F. ) ;
#90 = DATE_TIME_ROLE ( 'classification_date' ) ;
#91 = ORIENTED_EDGE ( 'NONE', *, *, #48, .T. ) ;
#92 = CARTESIAN_POINT ( 'NONE',  ( -2.000000000000000000, 0.000000000000000000, 2.000000000000000000 ) ) ;
#93 = APPROVAL_STATUS ( 'not_yet_approved' ) ;
#94 = DIRECTION ( 'NONE',  ( -0.000000000000000000, -0.000000000000000000, -1.000000000000000000 ) ) ;
#95 = VERTEX_POINT ( 'NONE', #92 ) ;
#96 = CARTESIAN_POINT ( 'NONE',  ( 1.000000000000000000, 1.224646799147353207E-16, 402.0000000000000000 ) ) ;
#97 = APPROVAL ( #179, 'NEURÈENÝ' ) ;
#98 = LINE ( 'NONE', #113, #145 ) ;
#99 = AXIS2_PLACEMENT_3D ( 'NONE', #184, #205, #108 ) ;
#100 = DATE_AND_TIME ( #68, #122 ) ;
#101 = FACE_OUTER_BOUND ( 'NONE', #190, .T. ) ;
#102 = CC_DESIGN_PERSON_AND_ORGANIZATION_ASSIGNMENT ( #12, #208, ( #129 ) ) ;
#103 = CARTESIAN_POINT ( 'NONE',  ( 0.000000000000000000, 0.000000000000000000, 2.000000000000000000 ) ) ;
#104 = VERTEX_POINT ( 'NONE', #195 ) ;
#105 =( GEOMETRIC_REPRESENTATION_CONTEXT ( 3 ) GLOBAL_UNCERTAINTY_ASSIGNED_CONTEXT ( ( #162 ) ) GLOBAL_UNIT_ASSIGNED_CONTEXT ( ( #219, #26, #200 ) ) REPRESENTATION_CONTEXT ( 'NONE', 'WORKASPACE' ) );
#106 = ORIENTED_EDGE ( 'NONE', *, *, #65, .T. ) ;
#107 = COORDINATED_UNIVERSAL_TIME_OFFSET ( 1, 0, .AHEAD. ) ;
#108 = DIRECTION ( 'NONE',  ( 1.000000000000000000, 0.000000000000000000, 0.000000000000000000 ) ) ;
#109 = PLANE ( 'NONE',  #11 ) ;
#110 = ORIENTED_EDGE ( 'NONE', *, *, #237, .T. ) ;
#111 = DIRECTION ( 'NONE',  ( 1.000000000000000000, 0.000000000000000000, 0.000000000000000000 ) ) ;
#112 = CARTESIAN_POINT ( 'NONE',  ( 0.000000000000000000, 0.000000000000000000, 2.000000000000000000 ) ) ;
#113 = CARTESIAN_POINT ( 'NONE',  ( 2.000000000000000000, 2.449293598294706414E-16, 2.000000000000000000 ) ) ;
#114 = CARTESIAN_POINT ( 'NONE',  ( -2.000000000000000000, 0.000000000000000000, 0.000000000000000000 ) ) ;
#115 = ADVANCED_BREP_SHAPE_REPRESENTATION ( 'f62c', ( #240, #158 ), #105 ) ;
#116 = DIRECTION ( 'NONE',  ( 0.000000000000000000, 0.000000000000000000, 1.000000000000000000 ) ) ;
#117 = VECTOR ( 'NONE', #41, 1000.000000000000000 ) ;
#118 = ADVANCED_FACE ( 'NONE', ( #192 ), #133, .T. ) ;
#119 = CYLINDRICAL_SURFACE ( 'NONE', #216, 1.000000000000000000 ) ;
#120 = EDGE_CURVE ( 'NONE', #146, #125, #73, .T. ) ;
#121 = ORIENTED_EDGE ( 'NONE', *, *, #153, .F. ) ;
#122 = LOCAL_TIME ( 20, 0, 56.00000000000000000, #4 ) ;
#123 = SECURITY_CLASSIFICATION_LEVEL ( 'unclassified' ) ;
#124 = EDGE_LOOP ( 'NONE', ( #50, #223 ) ) ;
#125 = VERTEX_POINT ( 'NONE', #96 ) ;
#126 = PERSON_AND_ORGANIZATION ( #21, #225 ) ;
#127 = DIRECTION ( 'NONE',  ( 0.000000000000000000, 0.000000000000000000, 1.000000000000000000 ) ) ;
#128 = ORIENTED_EDGE ( 'NONE', *, *, #82, .T. ) ;
#129 = SECURITY_CLASSIFICATION ( '', '', #123 ) ;
#130 = CARTESIAN_POINT ( 'NONE',  ( 0.000000000000000000, 0.000000000000000000, 2.000000000000000000 ) ) ;
#131 = DIRECTION ( 'NONE',  ( -0.000000000000000000, -0.000000000000000000, -1.000000000000000000 ) ) ;
#132 = EDGE_CURVE ( 'NONE', #146, #34, #170, .T. ) ;
#133 = PLANE ( 'NONE',  #178 ) ;
#134 = VECTOR ( 'NONE', #10, 1000.000000000000000 ) ;
#135 = ADVANCED_FACE ( 'NONE', ( #151 ), #187, .T. ) ;
#136 = ADVANCED_FACE ( 'NONE', ( #255 ), #249, .T. ) ;
#137 = PERSON_AND_ORGANIZATION_ROLE ( 'creator' ) ;
#138 = MECHANICAL_CONTEXT ( 'NONE', #244, 'mechanical' ) ;
#139 = AXIS2_PLACEMENT_3D ( 'NONE', #229, #188, #55 ) ;
#140 = CALENDAR_DATE ( 2022, 7, 7 ) ;
#141 = EDGE_LOOP ( 'NONE', ( #70, #128, #210, #89 ) ) ;
#142 = ORIENTED_EDGE ( 'NONE', *, *, #82, .F. ) ;
#143 = CC_DESIGN_APPROVAL ( #148, ( #129 ) ) ;
#144 = DATE_AND_TIME ( #227, #81 ) ;
#145 = VECTOR ( 'NONE', #209, 1000.000000000000000 ) ;
#146 = VERTEX_POINT ( 'NONE', #230 ) ;
#147 = FACE_OUTER_BOUND ( 'NONE', #161, .T. ) ;
#148 = APPROVAL ( #93, 'NEURÈENÝ' ) ;
#149 = FACE_OUTER_BOUND ( 'NONE', #124, .T. ) ;
#150 = CALENDAR_DATE ( 2022, 7, 7 ) ;
#151 = FACE_OUTER_BOUND ( 'NONE', #164, .T. ) ;
#152 = CARTESIAN_POINT ( 'NONE',  ( 0.000000000000000000, 0.000000000000000000, 402.0000000000000000 ) ) ;
#153 = EDGE_CURVE ( 'NONE', #34, #104, #254, .T. ) ;
#154 = DIRECTION ( 'NONE',  ( -0.000000000000000000, -0.000000000000000000, -1.000000000000000000 ) ) ;
#155 = AXIS2_PLACEMENT_3D ( 'NONE', #103, #221, #157 ) ;
#156 = PRODUCT_DEFINITION_FORMATION_WITH_SPECIFIED_SOURCE ( 'LIBOVOLNÝ', '', #174, .NOT_KNOWN. ) ;
#157 = DIRECTION ( 'NONE',  ( 1.000000000000000000, 0.000000000000000000, 0.000000000000000000 ) ) ;
#158 = AXIS2_PLACEMENT_3D ( 'NONE', #45, #116, #3 ) ;
#159 = APPLICATION_PROTOCOL_DEFINITION ( 'international standard', 'config_control_design', 1994, #244 ) ;
#160 = APPROVAL ( #198, 'NEURÈENÝ' ) ;
#161 = EDGE_LOOP ( 'NONE', ( #106, #52 ) ) ;
#162 = UNCERTAINTY_MEASURE_WITH_UNIT (LENGTH_MEASURE( 1.000000000000000082E-05 ), #219, 'distance_accuracy_value', 'NONE');
#163 = ORIENTED_EDGE ( 'NONE', *, *, #153, .T. ) ;
#164 = EDGE_LOOP ( 'NONE', ( #245, #250, #30, #163 ) ) ;
#165 = CALENDAR_DATE ( 2022, 7, 7 ) ;
#166 = EDGE_CURVE ( 'NONE', #95, #168, #77, .T. ) ;
#167 = DIRECTION ( 'NONE',  ( -0.000000000000000000, -0.000000000000000000, -1.000000000000000000 ) ) ;
#168 = VERTEX_POINT ( 'NONE', #114 ) ;
#169 = APPROVAL_ROLE ( '' ) ;
#170 = LINE ( 'NONE', #61, #134 ) ;
#171 = DIRECTION ( 'NONE',  ( 1.000000000000000000, 0.000000000000000000, -0.000000000000000000 ) ) ;
#172 = AXIS2_PLACEMENT_3D ( 'NONE', #212, #167, #189 ) ;
#173 = DIRECTION ( 'NONE',  ( 0.000000000000000000, 0.000000000000000000, 1.000000000000000000 ) ) ;
#174 = PRODUCT ( 'f62c', 'f62c', '', ( #138 ) ) ;
#175 = AXIS2_PLACEMENT_3D ( 'NONE', #130, #33, #253 ) ;
#176 = CIRCLE ( 'NONE', #155, 1.000000000000000000 ) ;
#177 = PRODUCT_DEFINITION_SHAPE ( 'NONE', 'NONE',  #43 ) ;
#178 = AXIS2_PLACEMENT_3D ( 'NONE', #152, #173, #171 ) ;
#179 = APPROVAL_STATUS ( 'not_yet_approved' ) ;
#180 = ADVANCED_FACE ( 'NONE', ( #20, #147 ), #109, .T. ) ;
#181 = DIRECTION ( 'NONE',  ( 1.000000000000000000, 0.000000000000000000, 0.000000000000000000 ) ) ;
#182 = VERTEX_POINT ( 'NONE', #84 ) ;
#183 = AXIS2_PLACEMENT_3D ( 'NONE', #112, #131, #191 ) ;
#184 = CARTESIAN_POINT ( 'NONE',  ( 0.000000000000000000, 0.000000000000000000, 0.000000000000000000 ) ) ;
#185 = PLANE ( 'NONE',  #139 ) ;
#186 = COORDINATED_UNIVERSAL_TIME_OFFSET ( 1, 0, .AHEAD. ) ;
#187 = CYLINDRICAL_SURFACE ( 'NONE', #172, 1.000000000000000000 ) ;
#188 = DIRECTION ( 'NONE',  ( 0.000000000000000000, 0.000000000000000000, 1.000000000000000000 ) ) ;
#189 = DIRECTION ( 'NONE',  ( -1.000000000000000000, 0.000000000000000000, 0.000000000000000000 ) ) ;
#190 = EDGE_LOOP ( 'NONE', ( #75, #226, #110, #247 ) ) ;
#191 = DIRECTION ( 'NONE',  ( -1.000000000000000000, 0.000000000000000000, 0.000000000000000000 ) ) ;
#192 = FACE_OUTER_BOUND ( 'NONE', #72, .T. ) ;
#193 = CC_DESIGN_DATE_AND_TIME_ASSIGNMENT ( #31, #90, ( #129 ) ) ;
#194 = CC_DESIGN_APPROVAL ( #160, ( #156 ) ) ;
#195 = CARTESIAN_POINT ( 'NONE',  ( 1.000000000000000000, 1.224646799147353207E-16, 2.000000000000000000 ) ) ;
#196 = CC_DESIGN_DATE_AND_TIME_ASSIGNMENT ( #47, #88, ( #43 ) ) ;
#197 = EDGE_CURVE ( 'NONE', #182, #95, #67, .T. ) ;
#198 = APPROVAL_STATUS ( 'not_yet_approved' ) ;
#199 = APPLICATION_PROTOCOL_DEFINITION ( 'international standard', 'config_control_design', 1994, #64 ) ;
#200 =( NAMED_UNIT ( * ) SI_UNIT ( $, .STERADIAN. ) SOLID_ANGLE_UNIT ( ) );
#201 = ORIENTED_EDGE ( 'NONE', *, *, #120, .T. ) ;
#202 = APPROVAL_DATE_TIME ( #144, #160 ) ;
#203 = CIRCLE ( 'NONE', #99, 2.000000000000000000 ) ;
#204 = CC_DESIGN_PERSON_AND_ORGANIZATION_ASSIGNMENT ( #126, #56, ( #156 ) ) ;
#205 = DIRECTION ( 'NONE',  ( 0.000000000000000000, 0.000000000000000000, 1.000000000000000000 ) ) ;
#206 = SHAPE_DEFINITION_REPRESENTATION ( #177, #115 ) ;
#207 = EDGE_LOOP ( 'NONE', ( #142, #243, #9, #15 ) ) ;
#208 = PERSON_AND_ORGANIZATION_ROLE ( 'classification_officer' ) ;
#209 = DIRECTION ( 'NONE',  ( -0.000000000000000000, -0.000000000000000000, -1.000000000000000000 ) ) ;
#210 = ORIENTED_EDGE ( 'NONE', *, *, #28, .T. ) ;
#211 = LOCAL_TIME ( 20, 0, 56.00000000000000000, #44 ) ;
#212 = CARTESIAN_POINT ( 'NONE',  ( 0.000000000000000000, 0.000000000000000000, 402.0000000000000000 ) ) ;
#213 = ADVANCED_FACE ( 'NONE', ( #101 ), #119, .T. ) ;
#214 = CARTESIAN_POINT ( 'NONE',  ( 0.000000000000000000, 0.000000000000000000, 402.0000000000000000 ) ) ;
#215 = DIRECTION ( 'NONE',  ( 1.000000000000000000, 0.000000000000000000, 0.000000000000000000 ) ) ;
#216 = AXIS2_PLACEMENT_3D ( 'NONE', #23, #2, #66 ) ;
#217 = AXIS2_PLACEMENT_3D ( 'NONE', #214, #16, #14 ) ;
#218 = APPROVAL_ROLE ( '' ) ;
#219 =( LENGTH_UNIT ( ) NAMED_UNIT ( * ) SI_UNIT ( .MILLI., .METRE. ) );
#220 = CIRCLE ( 'NONE', #217, 1.000000000000000000 ) ;
#221 = DIRECTION ( 'NONE',  ( 0.000000000000000000, 0.000000000000000000, 1.000000000000000000 ) ) ;
#222 = PERSON_AND_ORGANIZATION ( #21, #225 ) ;
#223 = ORIENTED_EDGE ( 'NONE', *, *, #28, .F. ) ;
#224 = DESIGN_CONTEXT ( 'detailed design', #64, 'design' ) ;
#225 = ORGANIZATION ( 'NEURÈENÝ', 'NEURÈENÝ', '' ) ;
#226 = ORIENTED_EDGE ( 'NONE', *, *, #71, .T. ) ;
#227 = CALENDAR_DATE ( 2022, 7, 7 ) ;
#228 = AXIS2_PLACEMENT_3D ( 'NONE', #36, #60, #17 ) ;
#229 = CARTESIAN_POINT ( 'NONE',  ( 0.000000000000000000, 0.000000000000000000, 0.000000000000000000 ) ) ;
#230 = CARTESIAN_POINT ( 'NONE',  ( -1.000000000000000000, 0.000000000000000000, 402.0000000000000000 ) ) ;
#231 = ORIENTED_EDGE ( 'NONE', *, *, #237, .F. ) ;
#232 = PERSON_AND_ORGANIZATION_ROLE ( 'design_supplier' ) ;
#233 = LINE ( 'NONE', #79, #53 ) ;
#234 = CC_DESIGN_SECURITY_CLASSIFICATION ( #129, ( #156 ) ) ;
#235 = DIRECTION ( 'NONE',  ( 0.000000000000000000, 0.000000000000000000, 1.000000000000000000 ) ) ;
#236 = CARTESIAN_POINT ( 'NONE',  ( 0.000000000000000000, 0.000000000000000000, 2.000000000000000000 ) ) ;
#237 = EDGE_CURVE ( 'NONE', #104, #34, #176, .T. ) ;
#238 = PERSON_AND_ORGANIZATION ( #21, #225 ) ;
#239 = CC_DESIGN_PERSON_AND_ORGANIZATION_ASSIGNMENT ( #85, #242, ( #174 ) ) ;
#240 = MANIFOLD_SOLID_BREP ( 'Pøidat vysunutím3', #42 ) ;
#241 = DIRECTION ( 'NONE',  ( 1.000000000000000000, 0.000000000000000000, -0.000000000000000000 ) ) ;
#242 = PERSON_AND_ORGANIZATION_ROLE ( 'design_owner' ) ;
#243 = ORIENTED_EDGE ( 'NONE', *, *, #65, .F. ) ;
#244 = APPLICATION_CONTEXT ( 'configuration controlled 3d designs of mechanical parts and assemblies' ) ;
#245 = ORIENTED_EDGE ( 'NONE', *, *, #71, .F. ) ;
#246 = AXIS2_PLACEMENT_3D ( 'NONE', #252, #62, #215 ) ;
#247 = ORIENTED_EDGE ( 'NONE', *, *, #132, .F. ) ;
#248 = AXIS2_PLACEMENT_3D ( 'NONE', #74, #235, #111 ) ;
#249 = CYLINDRICAL_SURFACE ( 'NONE', #1, 2.000000000000000000 ) ;
#250 = ORIENTED_EDGE ( 'NONE', *, *, #120, .F. ) ;
#251 = DATE_AND_TIME ( #150, #87 ) ;
#252 = CARTESIAN_POINT ( 'NONE',  ( 0.000000000000000000, 0.000000000000000000, 2.000000000000000000 ) ) ;
#253 = DIRECTION ( 'NONE',  ( 1.000000000000000000, 0.000000000000000000, 0.000000000000000000 ) ) ;
#254 = CIRCLE ( 'NONE', #246, 1.000000000000000000 ) ;
#255 = FACE_OUTER_BOUND ( 'NONE', #207, .T. ) ;
ENDSEC;
END-ISO-10303-21;
