ISO-10303-21;
HEADER;
FILE_DESCRIPTION (( 'STEP AP203' ),
    '1' );
FILE_NAME ('11ce.STEP',
    '2022-07-07T17:09:04',
    ( '' ),
    ( '' ),
    'SwSTEP 2.0',
    'SolidWorks 2019',
    '' );
FILE_SCHEMA (( 'CONFIG_CONTROL_DESIGN' ));
ENDSEC;

DATA;
#1 = ORIENTED_EDGE ( 'NONE', *, *, #18, .T. ) ;
#2 = EDGE_LOOP ( 'NONE', ( #119, #175 ) ) ;
#3 =( LENGTH_UNIT ( ) NAMED_UNIT ( * ) SI_UNIT ( .MILLI., .METRE. ) );
#4 = PERSON_AND_ORGANIZATION_ROLE ( 'creator' ) ;
#5 = COORDINATED_UNIVERSAL_TIME_OFFSET ( 1, 0, .AHEAD. ) ;
#6 = EDGE_CURVE ( 'NONE', #61, #137, #20, .T. ) ;
#7 = APPROVAL_ROLE ( '' ) ;
#8 = CARTESIAN_POINT ( 'NONE',  ( 0.000000000000000000, 0.000000000000000000, 7.000000000000000000 ) ) ;
#9 = CARTESIAN_POINT ( 'NONE',  ( -7.750000000000000000, 0.000000000000000000, 7.000000000000000000 ) ) ;
#10 = DIRECTION ( 'NONE',  ( -1.000000000000000000, 0.000000000000000000, 0.000000000000000000 ) ) ;
#11 = CC_DESIGN_PERSON_AND_ORGANIZATION_ASSIGNMENT ( #142, #4, ( #53 ) ) ;
#12 = CIRCLE ( 'NONE', #176, 7.750000000000000000 ) ;
#13 = CARTESIAN_POINT ( 'NONE',  ( 0.000000000000000000, 0.000000000000000000, 0.000000000000000000 ) ) ;
#14 = DIRECTION ( 'NONE',  ( 0.000000000000000000, 0.000000000000000000, 1.000000000000000000 ) ) ;
#15 = PRODUCT ( '11ce', '11ce', '', ( #224 ) ) ;
#16 = CARTESIAN_POINT ( 'NONE',  ( 7.750000000000000000, 9.491012693391987787E-16, 257.0000000000000000 ) ) ;
#17 = ORIENTED_EDGE ( 'NONE', *, *, #118, .F. ) ;
#18 = EDGE_CURVE ( 'NONE', #137, #122, #27, .T. ) ;
#19 = ORIENTED_EDGE ( 'NONE', *, *, #102, .T. ) ;
#20 = LINE ( 'NONE', #39, #174 ) ;
#21 = ORIENTED_EDGE ( 'NONE', *, *, #107, .F. ) ;
#22 = ORGANIZATION ( 'NEURÈENÝ', 'NEURÈENÝ', '' ) ;
#23 =( NAMED_UNIT ( * ) PLANE_ANGLE_UNIT ( ) SI_UNIT ( $, .RADIAN. ) );
#24 = MANIFOLD_SOLID_BREP ( 'Pøidat vysunutím3', #191 ) ;
#25 = PERSON_AND_ORGANIZATION ( #183, #22 ) ;
#26 = AXIS2_PLACEMENT_3D ( 'NONE', #249, #198, #35 ) ;
#27 = CIRCLE ( 'NONE', #246, 11.00000000000000000 ) ;
#28 = DATE_AND_TIME ( #185, #57 ) ;
#29 = EDGE_CURVE ( 'NONE', #138, #90, #221, .T. ) ;
#30 = COORDINATED_UNIVERSAL_TIME_OFFSET ( 1, 0, .AHEAD. ) ;
#31 = APPLICATION_PROTOCOL_DEFINITION ( 'international standard', 'config_control_design', 1994, #192 ) ;
#32 = CARTESIAN_POINT ( 'NONE',  ( 0.000000000000000000, 0.000000000000000000, 7.000000000000000000 ) ) ;
#33 = DIRECTION ( 'NONE',  ( 1.000000000000000000, 0.000000000000000000, 0.000000000000000000 ) ) ;
#34 = UNCERTAINTY_MEASURE_WITH_UNIT (LENGTH_MEASURE( 1.000000000000000082E-05 ), #3, 'distance_accuracy_value', 'NONE');
#35 = DIRECTION ( 'NONE',  ( 1.000000000000000000, 0.000000000000000000, 0.000000000000000000 ) ) ;
#36 = DIRECTION ( 'NONE',  ( 0.000000000000000000, 0.000000000000000000, 1.000000000000000000 ) ) ;
#37 = CIRCLE ( 'NONE', #180, 11.00000000000000000 ) ;
#38 = DIRECTION ( 'NONE',  ( 0.000000000000000000, 0.000000000000000000, 1.000000000000000000 ) ) ;
#39 = CARTESIAN_POINT ( 'NONE',  ( -11.00000000000000000, 0.000000000000000000, 7.000000000000000000 ) ) ;
#40 = EDGE_LOOP ( 'NONE', ( #178, #177, #77, #1 ) ) ;
#41 = VERTEX_POINT ( 'NONE', #200 ) ;
#42 = CARTESIAN_POINT ( 'NONE',  ( -7.750000000000000000, 0.000000000000000000, 257.0000000000000000 ) ) ;
#43 = APPROVAL ( #243, 'NEURÈENÝ' ) ;
#44 = DATE_TIME_ROLE ( 'classification_date' ) ;
#45 = PERSON_AND_ORGANIZATION ( #183, #22 ) ;
#46 = PERSON_AND_ORGANIZATION ( #183, #22 ) ;
#47 =( NAMED_UNIT ( * ) SI_UNIT ( $, .STERADIAN. ) SOLID_ANGLE_UNIT ( ) );
#48 = DIRECTION ( 'NONE',  ( 1.000000000000000000, 0.000000000000000000, 0.000000000000000000 ) ) ;
#49 = VECTOR ( 'NONE', #129, 1000.000000000000000 ) ;
#50 = DIRECTION ( 'NONE',  ( -0.000000000000000000, -0.000000000000000000, -1.000000000000000000 ) ) ;
#51 = AXIS2_PLACEMENT_3D ( 'NONE', #13, #14, #133 ) ;
#52 = CYLINDRICAL_SURFACE ( 'NONE', #165, 7.750000000000000000 ) ;
#53 = PRODUCT_DEFINITION ( 'NEZNÁMÝ', '', #166, #146 ) ;
#54 = DIRECTION ( 'NONE',  ( -0.000000000000000000, -0.000000000000000000, -1.000000000000000000 ) ) ;
#55 = FACE_OUTER_BOUND ( 'NONE', #156, .T. ) ;
#56 = AXIS2_PLACEMENT_3D ( 'NONE', #8, #195, #150 ) ;
#57 = LOCAL_TIME ( 19, 9, 4.000000000000000000, #188 ) ;
#58 = VERTEX_POINT ( 'NONE', #16 ) ;
#59 = DIRECTION ( 'NONE',  ( -0.000000000000000000, -0.000000000000000000, -1.000000000000000000 ) ) ;
#60 = AXIS2_PLACEMENT_3D ( 'NONE', #98, #202, #254 ) ;
#61 = VERTEX_POINT ( 'NONE', #117 ) ;
#62 = CIRCLE ( 'NONE', #60, 7.750000000000000000 ) ;
#63 = APPROVAL_PERSON_ORGANIZATION ( #46, #140, #106 ) ;
#64 = CARTESIAN_POINT ( 'NONE',  ( 0.000000000000000000, 0.000000000000000000, 0.000000000000000000 ) ) ;
#65 = PERSON_AND_ORGANIZATION ( #183, #22 ) ;
#66 = EDGE_CURVE ( 'NONE', #58, #138, #62, .T. ) ;
#67 = APPROVAL_DATE_TIME ( #222, #78 ) ;
#68 = CARTESIAN_POINT ( 'NONE',  ( 0.000000000000000000, 0.000000000000000000, 7.000000000000000000 ) ) ;
#69 = CIRCLE ( 'NONE', #26, 11.00000000000000000 ) ;
#70 = DIRECTION ( 'NONE',  ( -1.000000000000000000, 0.000000000000000000, 0.000000000000000000 ) ) ;
#71 = ADVANCED_FACE ( 'NONE', ( #153 ), #215, .T. ) ;
#72 = CARTESIAN_POINT ( 'NONE',  ( -7.750000000000000000, 0.000000000000000000, 257.0000000000000000 ) ) ;
#73 = PLANE ( 'NONE',  #207 ) ;
#74 = CARTESIAN_POINT ( 'NONE',  ( 7.750000000000000000, 9.491012693391987787E-16, 257.0000000000000000 ) ) ;
#75 = EDGE_LOOP ( 'NONE', ( #100, #81, #234, #136 ) ) ;
#76 = ORIENTED_EDGE ( 'NONE', *, *, #164, .T. ) ;
#77 = ORIENTED_EDGE ( 'NONE', *, *, #6, .T. ) ;
#78 = APPROVAL ( #108, 'NEURÈENÝ' ) ;
#79 = CC_DESIGN_APPROVAL ( #78, ( #166 ) ) ;
#80 = PERSON_AND_ORGANIZATION_ROLE ( 'design_supplier' ) ;
#81 = ORIENTED_EDGE ( 'NONE', *, *, #209, .T. ) ;
#82 = CIRCLE ( 'NONE', #184, 7.750000000000000000 ) ;
#83 = ADVANCED_FACE ( 'NONE', ( #55 ), #173, .T. ) ;
#84 = SECURITY_CLASSIFICATION_LEVEL ( 'unclassified' ) ;
#85 = VECTOR ( 'NONE', #54, 1000.000000000000000 ) ;
#86 = CALENDAR_DATE ( 2022, 7, 7 ) ;
#87 = APPROVAL_PERSON_ORGANIZATION ( #45, #78, #7 ) ;
#88 = APPROVAL_DATE_TIME ( #242, #140 ) ;
#89 = DIRECTION ( 'NONE',  ( 0.000000000000000000, 0.000000000000000000, 1.000000000000000000 ) ) ;
#90 = VERTEX_POINT ( 'NONE', #9 ) ;
#91 = DIRECTION ( 'NONE',  ( -0.000000000000000000, -0.000000000000000000, -1.000000000000000000 ) ) ;
#92 = DIRECTION ( 'NONE',  ( 1.000000000000000000, 0.000000000000000000, -0.000000000000000000 ) ) ;
#93 = LOCAL_TIME ( 19, 9, 4.000000000000000000, #162 ) ;
#94 = CARTESIAN_POINT ( 'NONE',  ( 0.000000000000000000, 0.000000000000000000, 7.000000000000000000 ) ) ;
#95 = EDGE_LOOP ( 'NONE', ( #204, #17 ) ) ;
#96 = CARTESIAN_POINT ( 'NONE',  ( 0.000000000000000000, 0.000000000000000000, 257.0000000000000000 ) ) ;
#97 = EDGE_LOOP ( 'NONE', ( #101, #21, #219, #179 ) ) ;
#98 = CARTESIAN_POINT ( 'NONE',  ( 0.000000000000000000, 0.000000000000000000, 257.0000000000000000 ) ) ;
#99 = CC_DESIGN_SECURITY_CLASSIFICATION ( #235, ( #166 ) ) ;
#100 = ORIENTED_EDGE ( 'NONE', *, *, #164, .F. ) ;
#101 = ORIENTED_EDGE ( 'NONE', *, *, #102, .F. ) ;
#102 = EDGE_CURVE ( 'NONE', #58, #217, #167, .T. ) ;
#103 = ORIENTED_EDGE ( 'NONE', *, *, #158, .F. ) ;
#104 = CC_DESIGN_DATE_AND_TIME_ASSIGNMENT ( #123, #44, ( #235 ) ) ;
#105 = PERSON_AND_ORGANIZATION_ROLE ( 'creator' ) ;
#106 = APPROVAL_ROLE ( '' ) ;
#107 = EDGE_CURVE ( 'NONE', #138, #58, #82, .T. ) ;
#108 = APPROVAL_STATUS ( 'not_yet_approved' ) ;
#109 = PERSON_AND_ORGANIZATION_ROLE ( 'design_owner' ) ;
#110 = DIRECTION ( 'NONE',  ( 1.000000000000000000, 0.000000000000000000, 0.000000000000000000 ) ) ;
#111 = FACE_OUTER_BOUND ( 'NONE', #95, .T. ) ;
#112 = CARTESIAN_POINT ( 'NONE',  ( 0.000000000000000000, 0.000000000000000000, 7.000000000000000000 ) ) ;
#113 = CARTESIAN_POINT ( 'NONE',  ( 0.000000000000000000, 0.000000000000000000, 7.000000000000000000 ) ) ;
#114 = DIRECTION ( 'NONE',  ( -0.000000000000000000, -0.000000000000000000, -1.000000000000000000 ) ) ;
#115 = DIRECTION ( 'NONE',  ( -0.000000000000000000, -0.000000000000000000, -1.000000000000000000 ) ) ;
#116 = ORIENTED_EDGE ( 'NONE', *, *, #216, .T. ) ;
#117 = CARTESIAN_POINT ( 'NONE',  ( -11.00000000000000000, 0.000000000000000000, 7.000000000000000000 ) ) ;
#118 = EDGE_CURVE ( 'NONE', #122, #137, #69, .T. ) ;
#119 = ORIENTED_EDGE ( 'NONE', *, *, #107, .T. ) ;
#120 = ORIENTED_EDGE ( 'NONE', *, *, #66, .F. ) ;
#121 = ADVANCED_FACE ( 'NONE', ( #131 ), #132, .T. ) ;
#122 = VERTEX_POINT ( 'NONE', #231 ) ;
#123 = DATE_AND_TIME ( #241, #93 ) ;
#124 = CC_DESIGN_APPROVAL ( #140, ( #235 ) ) ;
#125 = APPLICATION_PROTOCOL_DEFINITION ( 'international standard', 'config_control_design', 1994, #252 ) ;
#126 = APPROVAL_STATUS ( 'not_yet_approved' ) ;
#127 = PERSON_AND_ORGANIZATION ( #183, #22 ) ;
#128 = CALENDAR_DATE ( 2022, 7, 7 ) ;
#129 = DIRECTION ( 'NONE',  ( -0.000000000000000000, -0.000000000000000000, -1.000000000000000000 ) ) ;
#130 = DIRECTION ( 'NONE',  ( 1.000000000000000000, 0.000000000000000000, 0.000000000000000000 ) ) ;
#131 = FACE_OUTER_BOUND ( 'NONE', #40, .T. ) ;
#132 = CYLINDRICAL_SURFACE ( 'NONE', #210, 11.00000000000000000 ) ;
#133 = DIRECTION ( 'NONE',  ( 1.000000000000000000, 0.000000000000000000, -0.000000000000000000 ) ) ;
#134 = CIRCLE ( 'NONE', #248, 11.00000000000000000 ) ;
#135 = LOCAL_TIME ( 19, 9, 4.000000000000000000, #5 ) ;
#136 = ORIENTED_EDGE ( 'NONE', *, *, #6, .F. ) ;
#137 = VERTEX_POINT ( 'NONE', #168 ) ;
#138 = VERTEX_POINT ( 'NONE', #72 ) ;
#139 = DIRECTION ( 'NONE',  ( 0.000000000000000000, 0.000000000000000000, 1.000000000000000000 ) ) ;
#140 = APPROVAL ( #126, 'NEURÈENÝ' ) ;
#141 = APPROVAL_DATE_TIME ( #28, #43 ) ;
#142 = PERSON_AND_ORGANIZATION ( #183, #22 ) ;
#143 = ADVANCED_FACE ( 'NONE', ( #245 ), #73, .T. ) ;
#144 = DATE_TIME_ROLE ( 'creation_date' ) ;
#145 = SHAPE_DEFINITION_REPRESENTATION ( #157, #227 ) ;
#146 = DESIGN_CONTEXT ( 'detailed design', #252, 'design' ) ;
#147 = FACE_OUTER_BOUND ( 'NONE', #237, .T. ) ;
#148 = CARTESIAN_POINT ( 'NONE',  ( 0.000000000000000000, 0.000000000000000000, 257.0000000000000000 ) ) ;
#149 = CARTESIAN_POINT ( 'NONE',  ( 0.000000000000000000, 0.000000000000000000, 257.0000000000000000 ) ) ;
#150 = DIRECTION ( 'NONE',  ( 1.000000000000000000, 0.000000000000000000, -0.000000000000000000 ) ) ;
#151 = DIRECTION ( 'NONE',  ( 0.000000000000000000, 0.000000000000000000, 1.000000000000000000 ) ) ;
#152 = CIRCLE ( 'NONE', #240, 7.750000000000000000 ) ;
#153 = FACE_OUTER_BOUND ( 'NONE', #75, .T. ) ;
#154 = ADVANCED_FACE ( 'NONE', ( #214 ), #52, .T. ) ;
#155 = ORIENTED_EDGE ( 'NONE', *, *, #238, .F. ) ;
#156 = EDGE_LOOP ( 'NONE', ( #120, #19, #203, #236 ) ) ;
#157 = PRODUCT_DEFINITION_SHAPE ( 'NONE', 'NONE',  #53 ) ;
#158 = EDGE_CURVE ( 'NONE', #90, #217, #152, .T. ) ;
#159 = PERSON_AND_ORGANIZATION_ROLE ( 'classification_officer' ) ;
#160 = AXIS2_PLACEMENT_3D ( 'NONE', #32, #194, #70 ) ;
#161 = DATE_AND_TIME ( #223, #181 ) ;
#162 = COORDINATED_UNIVERSAL_TIME_OFFSET ( 1, 0, .AHEAD. ) ;
#163 = LOCAL_TIME ( 19, 9, 4.000000000000000000, #208 ) ;
#164 = EDGE_CURVE ( 'NONE', #41, #61, #37, .T. ) ;
#165 = AXIS2_PLACEMENT_3D ( 'NONE', #96, #114, #213 ) ;
#166 = PRODUCT_DEFINITION_FORMATION_WITH_SPECIFIED_SOURCE ( 'LIBOVOLNÝ', '', #15, .NOT_KNOWN. ) ;
#167 = LINE ( 'NONE', #74, #49 ) ;
#168 = CARTESIAN_POINT ( 'NONE',  ( -11.00000000000000000, 0.000000000000000000, 0.000000000000000000 ) ) ;
#169 = VECTOR ( 'NONE', #115, 1000.000000000000000 ) ;
#170 = DIRECTION ( 'NONE',  ( -1.000000000000000000, 0.000000000000000000, 0.000000000000000000 ) ) ;
#171 = CC_DESIGN_APPROVAL ( #43, ( #53 ) ) ;
#172 = DIRECTION ( 'NONE',  ( 0.000000000000000000, 0.000000000000000000, 1.000000000000000000 ) ) ;
#173 = CYLINDRICAL_SURFACE ( 'NONE', #201, 7.750000000000000000 ) ;
#174 = VECTOR ( 'NONE', #59, 1000.000000000000000 ) ;
#175 = ORIENTED_EDGE ( 'NONE', *, *, #66, .T. ) ;
#176 = AXIS2_PLACEMENT_3D ( 'NONE', #94, #172, #251 ) ;
#177 = ORIENTED_EDGE ( 'NONE', *, *, #216, .F. ) ;
#178 = ORIENTED_EDGE ( 'NONE', *, *, #209, .F. ) ;
#179 = ORIENTED_EDGE ( 'NONE', *, *, #158, .T. ) ;
#180 = AXIS2_PLACEMENT_3D ( 'NONE', #68, #211, #110 ) ;
#181 = LOCAL_TIME ( 19, 9, 4.000000000000000000, #30 ) ;
#182 = DIRECTION ( 'NONE',  ( 0.000000000000000000, 0.000000000000000000, 1.000000000000000000 ) ) ;
#183 = PERSON ( 'NEURÈENÝ', 'NEURÈENÝ', 'NEURÈENÝ', ('NEURÈENÝ'), ('NEURÈENÝ'), ('NEURÈENÝ') ) ;
#184 = AXIS2_PLACEMENT_3D ( 'NONE', #149, #38, #130 ) ;
#185 = CALENDAR_DATE ( 2022, 7, 7 ) ;
#186 = CC_DESIGN_PERSON_AND_ORGANIZATION_ASSIGNMENT ( #190, #105, ( #166 ) ) ;
#187 = DIRECTION ( 'NONE',  ( 1.000000000000000000, 0.000000000000000000, 0.000000000000000000 ) ) ;
#188 = COORDINATED_UNIVERSAL_TIME_OFFSET ( 1, 0, .AHEAD. ) ;
#189 = CC_DESIGN_PERSON_AND_ORGANIZATION_ASSIGNMENT ( #25, #80, ( #166 ) ) ;
#190 = PERSON_AND_ORGANIZATION ( #183, #22 ) ;
#191 = CLOSED_SHELL ( 'NONE', ( #83, #71, #121, #196, #199, #154, #143 ) ) ;
#192 = APPLICATION_CONTEXT ( 'configuration controlled 3d designs of mechanical parts and assemblies' ) ;
#193 = FACE_BOUND ( 'NONE', #255, .T. ) ;
#194 = DIRECTION ( 'NONE',  ( -0.000000000000000000, -0.000000000000000000, -1.000000000000000000 ) ) ;
#195 = DIRECTION ( 'NONE',  ( 0.000000000000000000, 0.000000000000000000, 1.000000000000000000 ) ) ;
#196 = ADVANCED_FACE ( 'NONE', ( #193, #147 ), #228, .T. ) ;
#197 = CARTESIAN_POINT ( 'NONE',  ( 7.750000000000000000, 9.491012693391987787E-16, 7.000000000000000000 ) ) ;
#198 = DIRECTION ( 'NONE',  ( 0.000000000000000000, 0.000000000000000000, 1.000000000000000000 ) ) ;
#199 = ADVANCED_FACE ( 'NONE', ( #111 ), #233, .F. ) ;
#200 = CARTESIAN_POINT ( 'NONE',  ( 11.00000000000000000, 1.347111479062088405E-15, 7.000000000000000000 ) ) ;
#201 = AXIS2_PLACEMENT_3D ( 'NONE', #148, #91, #170 ) ;
#202 = DIRECTION ( 'NONE',  ( 0.000000000000000000, 0.000000000000000000, 1.000000000000000000 ) ) ;
#203 = ORIENTED_EDGE ( 'NONE', *, *, #238, .T. ) ;
#204 = ORIENTED_EDGE ( 'NONE', *, *, #18, .F. ) ;
#205 = APPROVAL_PERSON_ORGANIZATION ( #65, #43, #206 ) ;
#206 = APPROVAL_ROLE ( '' ) ;
#207 = AXIS2_PLACEMENT_3D ( 'NONE', #247, #151, #92 ) ;
#208 = COORDINATED_UNIVERSAL_TIME_OFFSET ( 1, 0, .AHEAD. ) ;
#209 = EDGE_CURVE ( 'NONE', #41, #122, #212, .T. ) ;
#210 = AXIS2_PLACEMENT_3D ( 'NONE', #253, #50, #10 ) ;
#211 = DIRECTION ( 'NONE',  ( 0.000000000000000000, 0.000000000000000000, 1.000000000000000000 ) ) ;
#212 = LINE ( 'NONE', #232, #85 ) ;
#213 = DIRECTION ( 'NONE',  ( -1.000000000000000000, 0.000000000000000000, 0.000000000000000000 ) ) ;
#214 = FACE_OUTER_BOUND ( 'NONE', #97, .T. ) ;
#215 = CYLINDRICAL_SURFACE ( 'NONE', #160, 11.00000000000000000 ) ;
#216 = EDGE_CURVE ( 'NONE', #61, #41, #134, .T. ) ;
#217 = VERTEX_POINT ( 'NONE', #197 ) ;
#218 = DIRECTION ( 'NONE',  ( 1.000000000000000000, 0.000000000000000000, 0.000000000000000000 ) ) ;
#219 = ORIENTED_EDGE ( 'NONE', *, *, #29, .T. ) ;
#220 = CC_DESIGN_PERSON_AND_ORGANIZATION_ASSIGNMENT ( #239, #159, ( #235 ) ) ;
#221 = LINE ( 'NONE', #42, #169 ) ;
#222 = DATE_AND_TIME ( #128, #163 ) ;
#223 = CALENDAR_DATE ( 2022, 7, 7 ) ;
#224 = MECHANICAL_CONTEXT ( 'NONE', #192, 'mechanical' ) ;
#225 = CARTESIAN_POINT ( 'NONE',  ( 0.000000000000000000, 0.000000000000000000, 0.000000000000000000 ) ) ;
#226 = PRODUCT_RELATED_PRODUCT_CATEGORY ( 'detail', '', ( #15 ) ) ;
#227 = ADVANCED_BREP_SHAPE_REPRESENTATION ( '11ce', ( #24, #230 ), #244 ) ;
#228 = PLANE ( 'NONE',  #56 ) ;
#229 = CC_DESIGN_DATE_AND_TIME_ASSIGNMENT ( #161, #144, ( #53 ) ) ;
#230 = AXIS2_PLACEMENT_3D ( 'NONE', #225, #182, #187 ) ;
#231 = CARTESIAN_POINT ( 'NONE',  ( 11.00000000000000000, 1.347111479062088405E-15, 0.000000000000000000 ) ) ;
#232 = CARTESIAN_POINT ( 'NONE',  ( 11.00000000000000000, 1.347111479062088405E-15, 7.000000000000000000 ) ) ;
#233 = PLANE ( 'NONE',  #51 ) ;
#234 = ORIENTED_EDGE ( 'NONE', *, *, #118, .T. ) ;
#235 = SECURITY_CLASSIFICATION ( '', '', #84 ) ;
#236 = ORIENTED_EDGE ( 'NONE', *, *, #29, .F. ) ;
#237 = EDGE_LOOP ( 'NONE', ( #116, #76 ) ) ;
#238 = EDGE_CURVE ( 'NONE', #217, #90, #12, .T. ) ;
#239 = PERSON_AND_ORGANIZATION ( #183, #22 ) ;
#240 = AXIS2_PLACEMENT_3D ( 'NONE', #112, #36, #48 ) ;
#241 = CALENDAR_DATE ( 2022, 7, 7 ) ;
#242 = DATE_AND_TIME ( #86, #135 ) ;
#243 = APPROVAL_STATUS ( 'not_yet_approved' ) ;
#244 =( GEOMETRIC_REPRESENTATION_CONTEXT ( 3 ) GLOBAL_UNCERTAINTY_ASSIGNED_CONTEXT ( ( #34 ) ) GLOBAL_UNIT_ASSIGNED_CONTEXT ( ( #3, #23, #47 ) ) REPRESENTATION_CONTEXT ( 'NONE', 'WORKASPACE' ) );
#245 = FACE_OUTER_BOUND ( 'NONE', #2, .T. ) ;
#246 = AXIS2_PLACEMENT_3D ( 'NONE', #64, #139, #218 ) ;
#247 = CARTESIAN_POINT ( 'NONE',  ( 0.000000000000000000, 0.000000000000000000, 257.0000000000000000 ) ) ;
#248 = AXIS2_PLACEMENT_3D ( 'NONE', #113, #89, #33 ) ;
#249 = CARTESIAN_POINT ( 'NONE',  ( 0.000000000000000000, 0.000000000000000000, 0.000000000000000000 ) ) ;
#250 = CC_DESIGN_PERSON_AND_ORGANIZATION_ASSIGNMENT ( #127, #109, ( #15 ) ) ;
#251 = DIRECTION ( 'NONE',  ( 1.000000000000000000, 0.000000000000000000, 0.000000000000000000 ) ) ;
#252 = APPLICATION_CONTEXT ( 'configuration controlled 3d designs of mechanical parts and assemblies' ) ;
#253 = CARTESIAN_POINT ( 'NONE',  ( 0.000000000000000000, 0.000000000000000000, 7.000000000000000000 ) ) ;
#254 = DIRECTION ( 'NONE',  ( 1.000000000000000000, 0.000000000000000000, 0.000000000000000000 ) ) ;
#255 = EDGE_LOOP ( 'NONE', ( #103, #155 ) ) ;
ENDSEC;
END-ISO-10303-21;
