ISO-10303-21;
HEADER;
FILE_DESCRIPTION (( 'STEP AP203' ),
    '1' );
FILE_NAME ('d157.STEP',
    '2023-02-13T14:50:01',
    ( '' ),
    ( '' ),
    'SwSTEP 2.0',
    'SolidWorks 2019',
    '' );
FILE_SCHEMA (( 'CONFIG_CONTROL_DESIGN' ));
ENDSEC;

DATA;
#1 = CARTESIAN_POINT ( 'NONE',  ( 6.000000000000000888, 7.347880794884120722E-16, 5.000000000000000000 ) ) ;
#2 = UNCERTAINTY_MEASURE_WITH_UNIT (LENGTH_MEASURE( 1.000000000000000082E-05 ), #204, 'distance_accuracy_value', 'NONE');
#3 = ADVANCED_FACE ( 'NONE', ( #19, #40 ), #251, .T. ) ;
#4 = MECHANICAL_CONTEXT ( 'NONE', #132, 'mechanical' ) ;
#5 = ORIENTED_EDGE ( 'NONE', *, *, #58, .F. ) ;
#6 = AXIS2_PLACEMENT_3D ( 'NONE', #164, #112, #54 ) ;
#7 = DIRECTION ( 'NONE',  ( -1.000000000000000000, 0.000000000000000000, 0.000000000000000000 ) ) ;
#8 = AXIS2_PLACEMENT_3D ( 'NONE', #172, #228, #152 ) ;
#9 = CALENDAR_DATE ( 2023, 13, 2 ) ;
#10 = DIRECTION ( 'NONE',  ( -0.000000000000000000, -0.000000000000000000, -1.000000000000000000 ) ) ;
#11 = FACE_OUTER_BOUND ( 'NONE', #189, .T. ) ;
#12 = ADVANCED_FACE ( 'NONE', ( #186 ), #255, .T. ) ;
#13 = DATE_TIME_ROLE ( 'classification_date' ) ;
#14 = ORIENTED_EDGE ( 'NONE', *, *, #194, .F. ) ;
#15 = AXIS2_PLACEMENT_3D ( 'NONE', #18, #253, #193 ) ;
#16 = ADVANCED_FACE ( 'NONE', ( #159 ), #126, .F. ) ;
#17 = ORIENTED_EDGE ( 'NONE', *, *, #194, .T. ) ;
#18 = CARTESIAN_POINT ( 'NONE',  ( 0.000000000000000000, 0.000000000000000000, 160.0000000000000000 ) ) ;
#19 = FACE_BOUND ( 'NONE', #85, .T. ) ;
#20 = CC_DESIGN_APPROVAL ( #106, ( #48 ) ) ;
#21 = PERSON_AND_ORGANIZATION_ROLE ( 'creator' ) ;
#22 = PRODUCT_DEFINITION ( 'NEZNÁMÝ', '', #182, #122 ) ;
#23 = DIRECTION ( 'NONE',  ( -1.000000000000000000, 0.000000000000000000, 0.000000000000000000 ) ) ;
#24 = AXIS2_PLACEMENT_3D ( 'NONE', #50, #199, #89 ) ;
#25 = ORIENTED_EDGE ( 'NONE', *, *, #33, .F. ) ;
#26 = FACE_OUTER_BOUND ( 'NONE', #70, .T. ) ;
#27 = DIRECTION ( 'NONE',  ( 0.000000000000000000, 0.000000000000000000, 1.000000000000000000 ) ) ;
#28 = ORIENTED_EDGE ( 'NONE', *, *, #33, .T. ) ;
#29 = EDGE_CURVE ( 'NONE', #66, #101, #226, .T. ) ;
#30 = EDGE_LOOP ( 'NONE', ( #5, #14, #52, #28 ) ) ;
#31 = CARTESIAN_POINT ( 'NONE',  ( 6.000000000000000888, 7.347880794884120722E-16, 0.000000000000000000 ) ) ;
#32 = CARTESIAN_POINT ( 'NONE',  ( -6.000000000000000888, 0.000000000000000000, 0.000000000000000000 ) ) ;
#33 = EDGE_CURVE ( 'NONE', #101, #190, #195, .T. ) ;
#34 = PRODUCT ( 'd157', 'd157', '', ( #4 ) ) ;
#35 = PERSON_AND_ORGANIZATION_ROLE ( 'design_supplier' ) ;
#36 = LOCAL_TIME ( 15, 50, 1.000000000000000000, #95 ) ;
#37 = APPROVAL_ROLE ( '' ) ;
#38 = CALENDAR_DATE ( 2023, 13, 2 ) ;
#39 = APPROVAL_STATUS ( 'not_yet_approved' ) ;
#40 = FACE_OUTER_BOUND ( 'NONE', #121, .T. ) ;
#41 = EDGE_CURVE ( 'NONE', #62, #205, #94, .T. ) ;
#42 = ADVANCED_BREP_SHAPE_REPRESENTATION ( 'd157', ( #158, #161 ), #191 ) ;
#43 = LOCAL_TIME ( 15, 50, 1.000000000000000000, #153 ) ;
#44 = ADVANCED_FACE ( 'NONE', ( #26 ), #209, .T. ) ;
#45 = ORIENTED_EDGE ( 'NONE', *, *, #176, .T. ) ;
#46 = AXIS2_PLACEMENT_3D ( 'NONE', #65, #100, #84 ) ;
#47 = EDGE_CURVE ( 'NONE', #190, #101, #157, .T. ) ;
#48 = SECURITY_CLASSIFICATION ( '', '', #231 ) ;
#49 = VERTEX_POINT ( 'NONE', #102 ) ;
#50 = CARTESIAN_POINT ( 'NONE',  ( 0.000000000000000000, 0.000000000000000000, 5.000000000000000000 ) ) ;
#51 = DIRECTION ( 'NONE',  ( 1.000000000000000000, 0.000000000000000000, 0.000000000000000000 ) ) ;
#52 = ORIENTED_EDGE ( 'NONE', *, *, #29, .T. ) ;
#53 = DIRECTION ( 'NONE',  ( 0.000000000000000000, 0.000000000000000000, 1.000000000000000000 ) ) ;
#54 = DIRECTION ( 'NONE',  ( -1.000000000000000000, 0.000000000000000000, 0.000000000000000000 ) ) ;
#55 = CARTESIAN_POINT ( 'NONE',  ( 0.000000000000000000, 0.000000000000000000, 5.000000000000000000 ) ) ;
#56 = CARTESIAN_POINT ( 'NONE',  ( 6.000000000000000888, 7.347880794884120722E-16, 5.000000000000000000 ) ) ;
#57 = APPROVAL_STATUS ( 'not_yet_approved' ) ;
#58 = EDGE_CURVE ( 'NONE', #237, #190, #175, .T. ) ;
#59 = AXIS2_PLACEMENT_3D ( 'NONE', #105, #177, #76 ) ;
#60 = CALENDAR_DATE ( 2023, 13, 2 ) ;
#61 = ORIENTED_EDGE ( 'NONE', *, *, #47, .F. ) ;
#62 = VERTEX_POINT ( 'NONE', #167 ) ;
#63 = ADVANCED_FACE ( 'NONE', ( #71 ), #238, .T. ) ;
#64 = AXIS2_PLACEMENT_3D ( 'NONE', #86, #142, #23 ) ;
#65 = CARTESIAN_POINT ( 'NONE',  ( 0.000000000000000000, 0.000000000000000000, 0.000000000000000000 ) ) ;
#66 = VERTEX_POINT ( 'NONE', #196 ) ;
#67 = VERTEX_POINT ( 'NONE', #197 ) ;
#68 = CARTESIAN_POINT ( 'NONE',  ( 0.000000000000000000, 0.000000000000000000, 160.0000000000000000 ) ) ;
#69 = PERSON_AND_ORGANIZATION_ROLE ( 'design_owner' ) ;
#70 = EDGE_LOOP ( 'NONE', ( #111, #248 ) ) ;
#71 = FACE_OUTER_BOUND ( 'NONE', #30, .T. ) ;
#72 = COORDINATED_UNIVERSAL_TIME_OFFSET ( 1, 0, .AHEAD. ) ;
#73 = FACE_OUTER_BOUND ( 'NONE', #235, .T. ) ;
#74 = APPROVAL_PERSON_ORGANIZATION ( #245, #106, #37 ) ;
#75 = ORIENTED_EDGE ( 'NONE', *, *, #41, .F. ) ;
#76 = DIRECTION ( 'NONE',  ( 1.000000000000000000, 0.000000000000000000, 0.000000000000000000 ) ) ;
#77 = AXIS2_PLACEMENT_3D ( 'NONE', #55, #133, #202 ) ;
#78 = CC_DESIGN_PERSON_AND_ORGANIZATION_ASSIGNMENT ( #201, #21, ( #182 ) ) ;
#79 = DATE_AND_TIME ( #131, #43 ) ;
#80 = APPROVAL_PERSON_ORGANIZATION ( #227, #233, #230 ) ;
#81 = DATE_AND_TIME ( #38, #212 ) ;
#82 = AXIS2_PLACEMENT_3D ( 'NONE', #234, #145, #160 ) ;
#83 = CC_DESIGN_DATE_AND_TIME_ASSIGNMENT ( #79, #113, ( #22 ) ) ;
#84 = DIRECTION ( 'NONE',  ( 1.000000000000000000, 0.000000000000000000, 0.000000000000000000 ) ) ;
#85 = EDGE_LOOP ( 'NONE', ( #154, #185 ) ) ;
#86 = CARTESIAN_POINT ( 'NONE',  ( 0.000000000000000000, 0.000000000000000000, 160.0000000000000000 ) ) ;
#87 = LOCAL_TIME ( 15, 50, 1.000000000000000000, #138 ) ;
#88 = APPROVAL ( #181, 'NEURÈENÝ' ) ;
#89 = DIRECTION ( 'NONE',  ( 1.000000000000000000, 0.000000000000000000, 0.000000000000000000 ) ) ;
#90 = EDGE_CURVE ( 'NONE', #67, #49, #110, .T. ) ;
#91 = CARTESIAN_POINT ( 'NONE',  ( 0.000000000000000000, 0.000000000000000000, 5.000000000000000000 ) ) ;
#92 = DIRECTION ( 'NONE',  ( 0.000000000000000000, 0.000000000000000000, 1.000000000000000000 ) ) ;
#93 = PERSON_AND_ORGANIZATION ( #241, #229 ) ;
#94 = CIRCLE ( 'NONE', #15, 3.750000000000000000 ) ;
#95 = COORDINATED_UNIVERSAL_TIME_OFFSET ( 1, 0, .AHEAD. ) ;
#96 = APPROVAL_DATE_TIME ( #116, #106 ) ;
#97 =( NAMED_UNIT ( * ) PLANE_ANGLE_UNIT ( ) SI_UNIT ( $, .RADIAN. ) );
#98 = CC_DESIGN_PERSON_AND_ORGANIZATION_ASSIGNMENT ( #99, #35, ( #182 ) ) ;
#99 = PERSON_AND_ORGANIZATION ( #241, #229 ) ;
#100 = DIRECTION ( 'NONE',  ( 0.000000000000000000, 0.000000000000000000, 1.000000000000000000 ) ) ;
#101 = VERTEX_POINT ( 'NONE', #32 ) ;
#102 = CARTESIAN_POINT ( 'NONE',  ( 3.750000000000000000, 4.592425496802573972E-16, 5.000000000000000000 ) ) ;
#103 = EDGE_CURVE ( 'NONE', #205, #49, #236, .T. ) ;
#104 = ORIENTED_EDGE ( 'NONE', *, *, #155, .T. ) ;
#105 = CARTESIAN_POINT ( 'NONE',  ( 0.000000000000000000, 0.000000000000000000, 5.000000000000000000 ) ) ;
#106 = APPROVAL ( #57, 'NEURÈENÝ' ) ;
#107 = DIRECTION ( 'NONE',  ( 1.000000000000000000, 0.000000000000000000, -0.000000000000000000 ) ) ;
#108 = DIRECTION ( 'NONE',  ( 1.000000000000000000, 0.000000000000000000, 0.000000000000000000 ) ) ;
#109 = DIRECTION ( 'NONE',  ( 0.000000000000000000, 0.000000000000000000, 1.000000000000000000 ) ) ;
#110 = CIRCLE ( 'NONE', #214, 3.750000000000000000 ) ;
#111 = ORIENTED_EDGE ( 'NONE', *, *, #41, .T. ) ;
#112 = DIRECTION ( 'NONE',  ( -0.000000000000000000, -0.000000000000000000, -1.000000000000000000 ) ) ;
#113 = DATE_TIME_ROLE ( 'creation_date' ) ;
#114 = CIRCLE ( 'NONE', #24, 6.000000000000000888 ) ;
#115 = APPROVAL_DATE_TIME ( #81, #233 ) ;
#116 = DATE_AND_TIME ( #60, #36 ) ;
#117 = CC_DESIGN_APPROVAL ( #233, ( #182 ) ) ;
#118 = AXIS2_PLACEMENT_3D ( 'NONE', #200, #53, #51 ) ;
#119 = CLOSED_SHELL ( 'NONE', ( #12, #173, #63, #3, #16, #135, #44 ) ) ;
#120 = LOCAL_TIME ( 15, 50, 1.000000000000000000, #72 ) ;
#121 = EDGE_LOOP ( 'NONE', ( #17, #45 ) ) ;
#122 = DESIGN_CONTEXT ( 'detailed design', #146, 'design' ) ;
#123 = VECTOR ( 'NONE', #125, 1000.000000000000000 ) ;
#124 = CC_DESIGN_PERSON_AND_ORGANIZATION_ASSIGNMENT ( #250, #188, ( #22 ) ) ;
#125 = DIRECTION ( 'NONE',  ( -0.000000000000000000, -0.000000000000000000, -1.000000000000000000 ) ) ;
#126 = PLANE ( 'NONE',  #246 ) ;
#127 = PRODUCT_DEFINITION_SHAPE ( 'NONE', 'NONE',  #22 ) ;
#128 = CARTESIAN_POINT ( 'NONE',  ( 3.750000000000000000, 4.592425496802573972E-16, 160.0000000000000000 ) ) ;
#129 = ORIENTED_EDGE ( 'NONE', *, *, #58, .T. ) ;
#130 = AXIS2_PLACEMENT_3D ( 'NONE', #91, #92, #168 ) ;
#131 = CALENDAR_DATE ( 2023, 13, 2 ) ;
#132 = APPLICATION_CONTEXT ( 'configuration controlled 3d designs of mechanical parts and assemblies' ) ;
#133 = DIRECTION ( 'NONE',  ( 0.000000000000000000, 0.000000000000000000, 1.000000000000000000 ) ) ;
#134 = CYLINDRICAL_SURFACE ( 'NONE', #208, 6.000000000000000888 ) ;
#135 = ADVANCED_FACE ( 'NONE', ( #73 ), #225, .T. ) ;
#136 = ORIENTED_EDGE ( 'NONE', *, *, #29, .F. ) ;
#137 = CIRCLE ( 'NONE', #118, 3.750000000000000000 ) ;
#138 = COORDINATED_UNIVERSAL_TIME_OFFSET ( 1, 0, .AHEAD. ) ;
#139 = COORDINATED_UNIVERSAL_TIME_OFFSET ( 1, 0, .AHEAD. ) ;
#140 = EDGE_LOOP ( 'NONE', ( #213, #174, #104, #247 ) ) ;
#141 = APPLICATION_PROTOCOL_DEFINITION ( 'international standard', 'config_control_design', 1994, #132 ) ;
#142 = DIRECTION ( 'NONE',  ( -0.000000000000000000, -0.000000000000000000, -1.000000000000000000 ) ) ;
#143 = VECTOR ( 'NONE', #151, 1000.000000000000000 ) ;
#144 = ORIENTED_EDGE ( 'NONE', *, *, #176, .F. ) ;
#145 = DIRECTION ( 'NONE',  ( 0.000000000000000000, 0.000000000000000000, 1.000000000000000000 ) ) ;
#146 = APPLICATION_CONTEXT ( 'configuration controlled 3d designs of mechanical parts and assemblies' ) ;
#147 = APPLICATION_PROTOCOL_DEFINITION ( 'international standard', 'config_control_design', 1994, #146 ) ;
#148 = DIRECTION ( 'NONE',  ( -1.000000000000000000, 0.000000000000000000, 0.000000000000000000 ) ) ;
#149 = CARTESIAN_POINT ( 'NONE',  ( 0.000000000000000000, 0.000000000000000000, 5.000000000000000000 ) ) ;
#150 = CC_DESIGN_SECURITY_CLASSIFICATION ( #48, ( #182 ) ) ;
#151 = DIRECTION ( 'NONE',  ( -0.000000000000000000, -0.000000000000000000, -1.000000000000000000 ) ) ;
#152 = DIRECTION ( 'NONE',  ( 1.000000000000000000, 0.000000000000000000, 0.000000000000000000 ) ) ;
#153 = COORDINATED_UNIVERSAL_TIME_OFFSET ( 1, 0, .AHEAD. ) ;
#154 = ORIENTED_EDGE ( 'NONE', *, *, #90, .F. ) ;
#155 = EDGE_CURVE ( 'NONE', #49, #67, #198, .T. ) ;
#156 = VECTOR ( 'NONE', #240, 1000.000000000000000 ) ;
#157 = CIRCLE ( 'NONE', #46, 6.000000000000000888 ) ;
#158 = MANIFOLD_SOLID_BREP ( 'Pøidat vysunutím3', #119 ) ;
#159 = FACE_OUTER_BOUND ( 'NONE', #217, .T. ) ;
#160 = DIRECTION ( 'NONE',  ( 1.000000000000000000, 0.000000000000000000, -0.000000000000000000 ) ) ;
#161 = AXIS2_PLACEMENT_3D ( 'NONE', #220, #178, #108 ) ;
#162 = DIRECTION ( 'NONE',  ( -0.000000000000000000, -0.000000000000000000, -1.000000000000000000 ) ) ;
#163 = ORIENTED_EDGE ( 'NONE', *, *, #90, .T. ) ;
#164 = CARTESIAN_POINT ( 'NONE',  ( 0.000000000000000000, 0.000000000000000000, 5.000000000000000000 ) ) ;
#165 = CIRCLE ( 'NONE', #130, 6.000000000000000888 ) ;
#166 = APPROVAL_ROLE ( '' ) ;
#167 = CARTESIAN_POINT ( 'NONE',  ( -3.750000000000000000, 0.000000000000000000, 160.0000000000000000 ) ) ;
#168 = DIRECTION ( 'NONE',  ( 1.000000000000000000, 0.000000000000000000, 0.000000000000000000 ) ) ;
#169 = EDGE_CURVE ( 'NONE', #205, #62, #137, .T. ) ;
#170 = LINE ( 'NONE', #243, #143 ) ;
#171 = CALENDAR_DATE ( 2023, 13, 2 ) ;
#172 = CARTESIAN_POINT ( 'NONE',  ( 0.000000000000000000, 0.000000000000000000, 0.000000000000000000 ) ) ;
#173 = ADVANCED_FACE ( 'NONE', ( #11 ), #134, .T. ) ;
#174 = ORIENTED_EDGE ( 'NONE', *, *, #103, .T. ) ;
#175 = LINE ( 'NONE', #1, #184 ) ;
#176 = EDGE_CURVE ( 'NONE', #237, #66, #114, .T. ) ;
#177 = DIRECTION ( 'NONE',  ( 0.000000000000000000, 0.000000000000000000, 1.000000000000000000 ) ) ;
#178 = DIRECTION ( 'NONE',  ( 0.000000000000000000, 0.000000000000000000, 1.000000000000000000 ) ) ;
#179 = ORIENTED_EDGE ( 'NONE', *, *, #47, .T. ) ;
#180 = CARTESIAN_POINT ( 'NONE',  ( 0.000000000000000000, 0.000000000000000000, 0.000000000000000000 ) ) ;
#181 = APPROVAL_STATUS ( 'not_yet_approved' ) ;
#182 = PRODUCT_DEFINITION_FORMATION_WITH_SPECIFIED_SOURCE ( 'LIBOVOLNÝ', '', #34, .NOT_KNOWN. ) ;
#183 = DIRECTION ( 'NONE',  ( -0.000000000000000000, -0.000000000000000000, -1.000000000000000000 ) ) ;
#184 = VECTOR ( 'NONE', #162, 1000.000000000000000 ) ;
#185 = ORIENTED_EDGE ( 'NONE', *, *, #155, .F. ) ;
#186 = FACE_OUTER_BOUND ( 'NONE', #140, .T. ) ;
#187 = DATE_AND_TIME ( #171, #87 ) ;
#188 = PERSON_AND_ORGANIZATION_ROLE ( 'creator' ) ;
#189 = EDGE_LOOP ( 'NONE', ( #144, #129, #179, #136 ) ) ;
#190 = VERTEX_POINT ( 'NONE', #31 ) ;
#191 =( GEOMETRIC_REPRESENTATION_CONTEXT ( 3 ) GLOBAL_UNCERTAINTY_ASSIGNED_CONTEXT ( ( #2 ) ) GLOBAL_UNIT_ASSIGNED_CONTEXT ( ( #204, #97, #207 ) ) REPRESENTATION_CONTEXT ( 'NONE', 'WORKASPACE' ) );
#192 = ORIENTED_EDGE ( 'NONE', *, *, #210, .T. ) ;
#193 = DIRECTION ( 'NONE',  ( 1.000000000000000000, 0.000000000000000000, 0.000000000000000000 ) ) ;
#194 = EDGE_CURVE ( 'NONE', #66, #237, #165, .T. ) ;
#195 = CIRCLE ( 'NONE', #8, 6.000000000000000888 ) ;
#196 = CARTESIAN_POINT ( 'NONE',  ( -6.000000000000000888, 0.000000000000000000, 5.000000000000000000 ) ) ;
#197 = CARTESIAN_POINT ( 'NONE',  ( -3.750000000000000000, 0.000000000000000000, 5.000000000000000000 ) ) ;
#198 = CIRCLE ( 'NONE', #59, 3.750000000000000000 ) ;
#199 = DIRECTION ( 'NONE',  ( 0.000000000000000000, 0.000000000000000000, 1.000000000000000000 ) ) ;
#200 = CARTESIAN_POINT ( 'NONE',  ( 0.000000000000000000, 0.000000000000000000, 160.0000000000000000 ) ) ;
#201 = PERSON_AND_ORGANIZATION ( #241, #229 ) ;
#202 = DIRECTION ( 'NONE',  ( 1.000000000000000000, 0.000000000000000000, -0.000000000000000000 ) ) ;
#203 = PERSON_AND_ORGANIZATION_ROLE ( 'classification_officer' ) ;
#204 =( LENGTH_UNIT ( ) NAMED_UNIT ( * ) SI_UNIT ( .MILLI., .METRE. ) );
#205 = VERTEX_POINT ( 'NONE', #242 ) ;
#206 = SHAPE_DEFINITION_REPRESENTATION ( #127, #42 ) ;
#207 =( NAMED_UNIT ( * ) SI_UNIT ( $, .STERADIAN. ) SOLID_ANGLE_UNIT ( ) );
#208 = AXIS2_PLACEMENT_3D ( 'NONE', #215, #183, #7 ) ;
#209 = PLANE ( 'NONE',  #82 ) ;
#210 = EDGE_CURVE ( 'NONE', #62, #67, #170, .T. ) ;
#211 = CARTESIAN_POINT ( 'NONE',  ( -6.000000000000000888, 0.000000000000000000, 5.000000000000000000 ) ) ;
#212 = LOCAL_TIME ( 15, 50, 1.000000000000000000, #139 ) ;
#213 = ORIENTED_EDGE ( 'NONE', *, *, #169, .F. ) ;
#214 = AXIS2_PLACEMENT_3D ( 'NONE', #149, #109, #218 ) ;
#215 = CARTESIAN_POINT ( 'NONE',  ( 0.000000000000000000, 0.000000000000000000, 5.000000000000000000 ) ) ;
#216 = PERSON_AND_ORGANIZATION ( #241, #229 ) ;
#217 = EDGE_LOOP ( 'NONE', ( #25, #61 ) ) ;
#218 = DIRECTION ( 'NONE',  ( 1.000000000000000000, 0.000000000000000000, 0.000000000000000000 ) ) ;
#219 = DATE_AND_TIME ( #9, #120 ) ;
#220 = CARTESIAN_POINT ( 'NONE',  ( 0.000000000000000000, 0.000000000000000000, 0.000000000000000000 ) ) ;
#221 = AXIS2_PLACEMENT_3D ( 'NONE', #68, #10, #148 ) ;
#222 = APPROVAL_DATE_TIME ( #219, #88 ) ;
#223 = PRODUCT_RELATED_PRODUCT_CATEGORY ( 'detail', '', ( #34 ) ) ;
#224 = ORIENTED_EDGE ( 'NONE', *, *, #103, .F. ) ;
#225 = CYLINDRICAL_SURFACE ( 'NONE', #221, 3.750000000000000000 ) ;
#226 = LINE ( 'NONE', #211, #123 ) ;
#227 = PERSON_AND_ORGANIZATION ( #241, #229 ) ;
#228 = DIRECTION ( 'NONE',  ( 0.000000000000000000, 0.000000000000000000, 1.000000000000000000 ) ) ;
#229 = ORGANIZATION ( 'NEURÈENÝ', 'NEURÈENÝ', '' ) ;
#230 = APPROVAL_ROLE ( '' ) ;
#231 = SECURITY_CLASSIFICATION_LEVEL ( 'unclassified' ) ;
#232 = APPROVAL_PERSON_ORGANIZATION ( #216, #88, #166 ) ;
#233 = APPROVAL ( #39, 'NEURÈENÝ' ) ;
#234 = CARTESIAN_POINT ( 'NONE',  ( 0.000000000000000000, 0.000000000000000000, 160.0000000000000000 ) ) ;
#235 = EDGE_LOOP ( 'NONE', ( #224, #75, #192, #163 ) ) ;
#236 = LINE ( 'NONE', #128, #156 ) ;
#237 = VERTEX_POINT ( 'NONE', #56 ) ;
#238 = CYLINDRICAL_SURFACE ( 'NONE', #6, 6.000000000000000888 ) ;
#239 = PERSON_AND_ORGANIZATION ( #241, #229 ) ;
#240 = DIRECTION ( 'NONE',  ( -0.000000000000000000, -0.000000000000000000, -1.000000000000000000 ) ) ;
#241 = PERSON ( 'NEURÈENÝ', 'NEURÈENÝ', 'NEURÈENÝ', ('NEURÈENÝ'), ('NEURÈENÝ'), ('NEURÈENÝ') ) ;
#242 = CARTESIAN_POINT ( 'NONE',  ( 3.750000000000000000, 4.592425496802573972E-16, 160.0000000000000000 ) ) ;
#243 = CARTESIAN_POINT ( 'NONE',  ( -3.750000000000000000, 0.000000000000000000, 160.0000000000000000 ) ) ;
#244 = CC_DESIGN_PERSON_AND_ORGANIZATION_ASSIGNMENT ( #93, #203, ( #48 ) ) ;
#245 = PERSON_AND_ORGANIZATION ( #241, #229 ) ;
#246 = AXIS2_PLACEMENT_3D ( 'NONE', #180, #27, #107 ) ;
#247 = ORIENTED_EDGE ( 'NONE', *, *, #210, .F. ) ;
#248 = ORIENTED_EDGE ( 'NONE', *, *, #169, .T. ) ;
#249 = CC_DESIGN_DATE_AND_TIME_ASSIGNMENT ( #187, #13, ( #48 ) ) ;
#250 = PERSON_AND_ORGANIZATION ( #241, #229 ) ;
#251 = PLANE ( 'NONE',  #77 ) ;
#252 = CC_DESIGN_PERSON_AND_ORGANIZATION_ASSIGNMENT ( #239, #69, ( #34 ) ) ;
#253 = DIRECTION ( 'NONE',  ( 0.000000000000000000, 0.000000000000000000, 1.000000000000000000 ) ) ;
#254 = CC_DESIGN_APPROVAL ( #88, ( #22 ) ) ;
#255 = CYLINDRICAL_SURFACE ( 'NONE', #64, 3.750000000000000000 ) ;
ENDSEC;
END-ISO-10303-21;
