ISO-10303-21;
HEADER;
FILE_DESCRIPTION (( 'STEP AP203' ),
    '1' );
FILE_NAME ('5b6e.STEP',
    '2022-07-07T17:04:58',
    ( '' ),
    ( '' ),
    'SwSTEP 2.0',
    'SolidWorks 2019',
    '' );
FILE_SCHEMA (( 'CONFIG_CONTROL_DESIGN' ));
ENDSEC;

DATA;
#1 = ORIENTED_EDGE ( 'NONE', *, *, #119, .T. ) ;
#2 = CARTESIAN_POINT ( 'NONE',  ( -12.00000000000000178, 0.000000000000000000, 0.000000000000000000 ) ) ;
#3 = ORIENTED_EDGE ( 'NONE', *, *, #254, .T. ) ;
#4 = ORIENTED_EDGE ( 'NONE', *, *, #69, .T. ) ;
#5 = CARTESIAN_POINT ( 'NONE',  ( 12.00000000000000178, 1.469576158976824144E-15, 0.000000000000000000 ) ) ;
#6 = EDGE_LOOP ( 'NONE', ( #205, #126 ) ) ;
#7 = CARTESIAN_POINT ( 'NONE',  ( 0.000000000000000000, 0.000000000000000000, 0.000000000000000000 ) ) ;
#8 = PERSON_AND_ORGANIZATION ( #253, #71 ) ;
#9 = ADVANCED_FACE ( 'NONE', ( #124 ), #87, .F. ) ;
#10 = PRODUCT ( '5b6e', '5b6e', '', ( #57 ) ) ;
#11 = APPLICATION_PROTOCOL_DEFINITION ( 'international standard', 'config_control_design', 1994, #191 ) ;
#12 = COORDINATED_UNIVERSAL_TIME_OFFSET ( 1, 0, .AHEAD. ) ;
#13 = ADVANCED_FACE ( 'NONE', ( #94 ), #148, .T. ) ;
#14 = AXIS2_PLACEMENT_3D ( 'NONE', #130, #91, #210 ) ;
#15 = LOCAL_TIME ( 19, 4, 58.00000000000000000, #12 ) ;
#16 = COORDINATED_UNIVERSAL_TIME_OFFSET ( 1, 0, .AHEAD. ) ;
#17 = ADVANCED_FACE ( 'NONE', ( #49, #27 ), #89, .T. ) ;
#18 = AXIS2_PLACEMENT_3D ( 'NONE', #30, #142, #227 ) ;
#19 = ORIENTED_EDGE ( 'NONE', *, *, #226, .T. ) ;
#20 = AXIS2_PLACEMENT_3D ( 'NONE', #107, #24, #68 ) ;
#21 = DIRECTION ( 'NONE',  ( -0.000000000000000000, -0.000000000000000000, -1.000000000000000000 ) ) ;
#22 = ORIENTED_EDGE ( 'NONE', *, *, #243, .T. ) ;
#23 = AXIS2_PLACEMENT_3D ( 'NONE', #31, #236, #66 ) ;
#24 = DIRECTION ( 'NONE',  ( 0.000000000000000000, 0.000000000000000000, 1.000000000000000000 ) ) ;
#25 = ORIENTED_EDGE ( 'NONE', *, *, #96, .F. ) ;
#26 = DIRECTION ( 'NONE',  ( -0.000000000000000000, -0.000000000000000000, -1.000000000000000000 ) ) ;
#27 = FACE_OUTER_BOUND ( 'NONE', #186, .T. ) ;
#28 = CC_DESIGN_PERSON_AND_ORGANIZATION_ASSIGNMENT ( #200, #103, ( #104 ) ) ;
#29 = AXIS2_PLACEMENT_3D ( 'NONE', #67, #70, #146 ) ;
#30 = CARTESIAN_POINT ( 'NONE',  ( 0.000000000000000000, 0.000000000000000000, 322.0000000000000000 ) ) ;
#31 = CARTESIAN_POINT ( 'NONE',  ( 0.000000000000000000, 0.000000000000000000, 322.0000000000000000 ) ) ;
#32 = CALENDAR_DATE ( 2022, 7, 7 ) ;
#33 = EDGE_CURVE ( 'NONE', #122, #73, #234, .T. ) ;
#34 = APPROVAL_STATUS ( 'not_yet_approved' ) ;
#35 = LOCAL_TIME ( 19, 4, 58.00000000000000000, #229 ) ;
#36 = ADVANCED_BREP_SHAPE_REPRESENTATION ( '5b6e', ( #250, #176 ), #214 ) ;
#37 = CARTESIAN_POINT ( 'NONE',  ( 0.000000000000000000, 0.000000000000000000, 0.000000000000000000 ) ) ;
#38 = VECTOR ( 'NONE', #224, 1000.000000000000000 ) ;
#39 = CC_DESIGN_SECURITY_CLASSIFICATION ( #104, ( #64 ) ) ;
#40 = APPROVAL ( #34, 'NEURÈENÝ' ) ;
#41 = AXIS2_PLACEMENT_3D ( 'NONE', #203, #183, #108 ) ;
#42 = VECTOR ( 'NONE', #21, 1000.000000000000000 ) ;
#43 = ADVANCED_FACE ( 'NONE', ( #163 ), #51, .T. ) ;
#44 = VERTEX_POINT ( 'NONE', #111 ) ;
#45 = ORIENTED_EDGE ( 'NONE', *, *, #90, .T. ) ;
#46 = CARTESIAN_POINT ( 'NONE',  ( -12.00000000000000178, 0.000000000000000000, 7.000000000000000000 ) ) ;
#47 = EDGE_LOOP ( 'NONE', ( #217, #235 ) ) ;
#48 = CARTESIAN_POINT ( 'NONE',  ( 0.000000000000000000, 0.000000000000000000, 322.0000000000000000 ) ) ;
#49 = FACE_BOUND ( 'NONE', #6, .T. ) ;
#50 = EDGE_CURVE ( 'NONE', #73, #52, #209, .T. ) ;
#51 = CYLINDRICAL_SURFACE ( 'NONE', #193, 9.000000000000001776 ) ;
#52 = VERTEX_POINT ( 'NONE', #5 ) ;
#53 = CIRCLE ( 'NONE', #180, 12.00000000000000178 ) ;
#54 = FACE_OUTER_BOUND ( 'NONE', #110, .T. ) ;
#55 = ADVANCED_FACE ( 'NONE', ( #147 ), #72, .T. ) ;
#56 = CIRCLE ( 'NONE', #223, 12.00000000000000178 ) ;
#57 = MECHANICAL_CONTEXT ( 'NONE', #149, 'mechanical' ) ;
#58 = DIRECTION ( 'NONE',  ( 0.000000000000000000, 0.000000000000000000, 1.000000000000000000 ) ) ;
#59 = PRODUCT_DEFINITION_SHAPE ( 'NONE', 'NONE',  #140 ) ;
#60 = DIRECTION ( 'NONE',  ( 1.000000000000000000, 0.000000000000000000, 0.000000000000000000 ) ) ;
#61 = CC_DESIGN_PERSON_AND_ORGANIZATION_ASSIGNMENT ( #255, #198, ( #64 ) ) ;
#62 = APPROVAL_ROLE ( '' ) ;
#63 = ORIENTED_EDGE ( 'NONE', *, *, #83, .T. ) ;
#64 = PRODUCT_DEFINITION_FORMATION_WITH_SPECIFIED_SOURCE ( 'LIBOVOLNÝ', '', #10, .NOT_KNOWN. ) ;
#65 = VERTEX_POINT ( 'NONE', #238 ) ;
#66 = DIRECTION ( 'NONE',  ( 1.000000000000000000, 0.000000000000000000, -0.000000000000000000 ) ) ;
#67 = CARTESIAN_POINT ( 'NONE',  ( 0.000000000000000000, 0.000000000000000000, 7.000000000000000000 ) ) ;
#68 = DIRECTION ( 'NONE',  ( 1.000000000000000000, 0.000000000000000000, 0.000000000000000000 ) ) ;
#69 = EDGE_CURVE ( 'NONE', #92, #52, #53, .T. ) ;
#70 = DIRECTION ( 'NONE',  ( -0.000000000000000000, -0.000000000000000000, -1.000000000000000000 ) ) ;
#71 = ORGANIZATION ( 'NEURÈENÝ', 'NEURÈENÝ', '' ) ;
#72 = CYLINDRICAL_SURFACE ( 'NONE', #144, 12.00000000000000178 ) ;
#73 = VERTEX_POINT ( 'NONE', #129 ) ;
#74 = CARTESIAN_POINT ( 'NONE',  ( 0.000000000000000000, 0.000000000000000000, 322.0000000000000000 ) ) ;
#75 = VECTOR ( 'NONE', #26, 1000.000000000000000 ) ;
#76 = PERSON_AND_ORGANIZATION_ROLE ( 'design_owner' ) ;
#77 = DIRECTION ( 'NONE',  ( 1.000000000000000000, 0.000000000000000000, 0.000000000000000000 ) ) ;
#78 = DIRECTION ( 'NONE',  ( 0.000000000000000000, 0.000000000000000000, 1.000000000000000000 ) ) ;
#79 = AXIS2_PLACEMENT_3D ( 'NONE', #225, #201, #237 ) ;
#80 = CC_DESIGN_DATE_AND_TIME_ASSIGNMENT ( #116, #169, ( #140 ) ) ;
#81 = COORDINATED_UNIVERSAL_TIME_OFFSET ( 1, 0, .AHEAD. ) ;
#82 = AXIS2_PLACEMENT_3D ( 'NONE', #246, #58, #245 ) ;
#83 = EDGE_CURVE ( 'NONE', #122, #92, #125, .T. ) ;
#84 = APPROVAL_DATE_TIME ( #252, #178 ) ;
#85 = CIRCLE ( 'NONE', #184, 9.000000000000001776 ) ;
#86 = SHAPE_DEFINITION_REPRESENTATION ( #59, #36 ) ;
#87 = PLANE ( 'NONE',  #41 ) ;
#88 = PLANE ( 'NONE',  #23 ) ;
#89 = PLANE ( 'NONE',  #79 ) ;
#90 = EDGE_CURVE ( 'NONE', #44, #65, #123, .T. ) ;
#91 = DIRECTION ( 'NONE',  ( 0.000000000000000000, 0.000000000000000000, 1.000000000000000000 ) ) ;
#92 = VERTEX_POINT ( 'NONE', #2 ) ;
#93 = DIRECTION ( 'NONE',  ( -0.000000000000000000, -0.000000000000000000, -1.000000000000000000 ) ) ;
#94 = FACE_OUTER_BOUND ( 'NONE', #128, .T. ) ;
#95 = DIRECTION ( 'NONE',  ( 1.000000000000000000, 0.000000000000000000, 0.000000000000000000 ) ) ;
#96 = EDGE_CURVE ( 'NONE', #73, #122, #135, .T. ) ;
#97 = APPROVAL_ROLE ( '' ) ;
#98 = CARTESIAN_POINT ( 'NONE',  ( 9.000000000000001776, 1.102182119232617911E-15, 7.000000000000000000 ) ) ;
#99 = CC_DESIGN_DATE_AND_TIME_ASSIGNMENT ( #175, #158, ( #104 ) ) ;
#100 = PERSON_AND_ORGANIZATION_ROLE ( 'creator' ) ;
#101 = LOCAL_TIME ( 19, 4, 58.00000000000000000, #16 ) ;
#102 = EDGE_CURVE ( 'NONE', #44, #222, #251, .T. ) ;
#103 = PERSON_AND_ORGANIZATION_ROLE ( 'classification_officer' ) ;
#104 = SECURITY_CLASSIFICATION ( '', '', #174 ) ;
#105 = COORDINATED_UNIVERSAL_TIME_OFFSET ( 1, 0, .AHEAD. ) ;
#106 = ORIENTED_EDGE ( 'NONE', *, *, #33, .T. ) ;
#107 = CARTESIAN_POINT ( 'NONE',  ( 0.000000000000000000, 0.000000000000000000, 7.000000000000000000 ) ) ;
#108 = DIRECTION ( 'NONE',  ( 1.000000000000000000, 0.000000000000000000, -0.000000000000000000 ) ) ;
#109 = CARTESIAN_POINT ( 'NONE',  ( 0.000000000000000000, 0.000000000000000000, 7.000000000000000000 ) ) ;
#110 = EDGE_LOOP ( 'NONE', ( #181, #239 ) ) ;
#111 = CARTESIAN_POINT ( 'NONE',  ( -9.000000000000001776, 0.000000000000000000, 322.0000000000000000 ) ) ;
#112 = EDGE_LOOP ( 'NONE', ( #143, #159, #63, #4 ) ) ;
#113 = CARTESIAN_POINT ( 'NONE',  ( 9.000000000000001776, 1.102182119232617911E-15, 322.0000000000000000 ) ) ;
#114 = APPROVAL_PERSON_ORGANIZATION ( #172, #196, #248 ) ;
#115 = DIRECTION ( 'NONE',  ( 1.000000000000000000, 0.000000000000000000, 0.000000000000000000 ) ) ;
#116 = DATE_AND_TIME ( #32, #15 ) ;
#117 = APPROVAL_DATE_TIME ( #132, #40 ) ;
#118 = PERSON_AND_ORGANIZATION ( #253, #71 ) ;
#119 = EDGE_CURVE ( 'NONE', #222, #241, #145, .T. ) ;
#120 = PERSON_AND_ORGANIZATION ( #253, #71 ) ;
#121 = AXIS2_PLACEMENT_3D ( 'NONE', #48, #165, #188 ) ;
#122 = VERTEX_POINT ( 'NONE', #207 ) ;
#123 = LINE ( 'NONE', #127, #244 ) ;
#124 = FACE_OUTER_BOUND ( 'NONE', #47, .T. ) ;
#125 = LINE ( 'NONE', #46, #75 ) ;
#126 = ORIENTED_EDGE ( 'NONE', *, *, #226, .F. ) ;
#127 = CARTESIAN_POINT ( 'NONE',  ( -9.000000000000001776, 0.000000000000000000, 322.0000000000000000 ) ) ;
#128 = EDGE_LOOP ( 'NONE', ( #25, #167, #3, #220 ) ) ;
#129 = CARTESIAN_POINT ( 'NONE',  ( 12.00000000000000178, 1.469576158976824144E-15, 7.000000000000000000 ) ) ;
#130 = CARTESIAN_POINT ( 'NONE',  ( 0.000000000000000000, 0.000000000000000000, 7.000000000000000000 ) ) ;
#131 = CIRCLE ( 'NONE', #82, 9.000000000000001776 ) ;
#132 = DATE_AND_TIME ( #197, #35 ) ;
#133 = DESIGN_CONTEXT ( 'detailed design', #191, 'design' ) ;
#134 = ADVANCED_FACE ( 'NONE', ( #221 ), #202, .T. ) ;
#135 = CIRCLE ( 'NONE', #20, 12.00000000000000178 ) ;
#136 = APPROVAL_STATUS ( 'not_yet_approved' ) ;
#137 = EDGE_CURVE ( 'NONE', #222, #44, #192, .T. ) ;
#138 = EDGE_LOOP ( 'NONE', ( #189, #1, #19, #141 ) ) ;
#139 = APPROVAL_PERSON_ORGANIZATION ( #177, #178, #62 ) ;
#140 = PRODUCT_DEFINITION ( 'NEZNÁMÝ', '', #64, #133 ) ;
#141 = ORIENTED_EDGE ( 'NONE', *, *, #90, .F. ) ;
#142 = DIRECTION ( 'NONE',  ( 0.000000000000000000, 0.000000000000000000, 1.000000000000000000 ) ) ;
#143 = ORIENTED_EDGE ( 'NONE', *, *, #50, .F. ) ;
#144 = AXIS2_PLACEMENT_3D ( 'NONE', #242, #93, #161 ) ;
#145 = LINE ( 'NONE', #113, #42 ) ;
#146 = DIRECTION ( 'NONE',  ( -1.000000000000000000, 0.000000000000000000, 0.000000000000000000 ) ) ;
#147 = FACE_OUTER_BOUND ( 'NONE', #112, .T. ) ;
#148 = CYLINDRICAL_SURFACE ( 'NONE', #29, 12.00000000000000178 ) ;
#149 = APPLICATION_CONTEXT ( 'configuration controlled 3d designs of mechanical parts and assemblies' ) ;
#150 = DIRECTION ( 'NONE',  ( -0.000000000000000000, -0.000000000000000000, -1.000000000000000000 ) ) ;
#151 = APPLICATION_PROTOCOL_DEFINITION ( 'international standard', 'config_control_design', 1994, #149 ) ;
#152 = APPROVAL_PERSON_ORGANIZATION ( #8, #40, #97 ) ;
#153 = CLOSED_SHELL ( 'NONE', ( #134, #13, #55, #17, #9, #43, #215 ) ) ;
#154 = CALENDAR_DATE ( 2022, 7, 7 ) ;
#155 = LOCAL_TIME ( 19, 4, 58.00000000000000000, #105 ) ;
#156 = PERSON_AND_ORGANIZATION_ROLE ( 'creator' ) ;
#157 = CALENDAR_DATE ( 2022, 7, 7 ) ;
#158 = DATE_TIME_ROLE ( 'classification_date' ) ;
#159 = ORIENTED_EDGE ( 'NONE', *, *, #33, .F. ) ;
#160 = CC_DESIGN_APPROVAL ( #178, ( #104 ) ) ;
#161 = DIRECTION ( 'NONE',  ( -1.000000000000000000, 0.000000000000000000, 0.000000000000000000 ) ) ;
#162 = EDGE_LOOP ( 'NONE', ( #164, #216, #45, #22 ) ) ;
#163 = FACE_OUTER_BOUND ( 'NONE', #162, .T. ) ;
#164 = ORIENTED_EDGE ( 'NONE', *, *, #119, .F. ) ;
#165 = DIRECTION ( 'NONE',  ( -0.000000000000000000, -0.000000000000000000, -1.000000000000000000 ) ) ;
#166 = CC_DESIGN_PERSON_AND_ORGANIZATION_ASSIGNMENT ( #118, #76, ( #10 ) ) ;
#167 = ORIENTED_EDGE ( 'NONE', *, *, #50, .T. ) ;
#168 = DIRECTION ( 'NONE',  ( 0.000000000000000000, 0.000000000000000000, 1.000000000000000000 ) ) ;
#169 = DATE_TIME_ROLE ( 'creation_date' ) ;
#170 = DIRECTION ( 'NONE',  ( 0.000000000000000000, 0.000000000000000000, 1.000000000000000000 ) ) ;
#171 = APPROVAL_STATUS ( 'not_yet_approved' ) ;
#172 = PERSON_AND_ORGANIZATION ( #253, #71 ) ;
#173 = CC_DESIGN_APPROVAL ( #196, ( #64 ) ) ;
#174 = SECURITY_CLASSIFICATION_LEVEL ( 'unclassified' ) ;
#175 = DATE_AND_TIME ( #157, #155 ) ;
#176 = AXIS2_PLACEMENT_3D ( 'NONE', #247, #195, #60 ) ;
#177 = PERSON_AND_ORGANIZATION ( #253, #71 ) ;
#178 = APPROVAL ( #136, 'NEURÈENÝ' ) ;
#179 = CALENDAR_DATE ( 2022, 7, 7 ) ;
#180 = AXIS2_PLACEMENT_3D ( 'NONE', #7, #168, #115 ) ;
#181 = ORIENTED_EDGE ( 'NONE', *, *, #102, .T. ) ;
#182 = CARTESIAN_POINT ( 'NONE',  ( 12.00000000000000178, 1.469576158976824144E-15, 7.000000000000000000 ) ) ;
#183 = DIRECTION ( 'NONE',  ( 0.000000000000000000, 0.000000000000000000, 1.000000000000000000 ) ) ;
#184 = AXIS2_PLACEMENT_3D ( 'NONE', #109, #170, #213 ) ;
#185 = DIRECTION ( 'NONE',  ( -0.000000000000000000, -0.000000000000000000, -1.000000000000000000 ) ) ;
#186 = EDGE_LOOP ( 'NONE', ( #106, #208 ) ) ;
#187 = CC_DESIGN_PERSON_AND_ORGANIZATION_ASSIGNMENT ( #230, #100, ( #140 ) ) ;
#188 = DIRECTION ( 'NONE',  ( -1.000000000000000000, 0.000000000000000000, 0.000000000000000000 ) ) ;
#189 = ORIENTED_EDGE ( 'NONE', *, *, #137, .F. ) ;
#190 = DIRECTION ( 'NONE',  ( 0.000000000000000000, 0.000000000000000000, 1.000000000000000000 ) ) ;
#191 = APPLICATION_CONTEXT ( 'configuration controlled 3d designs of mechanical parts and assemblies' ) ;
#192 = CIRCLE ( 'NONE', #211, 9.000000000000001776 ) ;
#193 = AXIS2_PLACEMENT_3D ( 'NONE', #74, #185, #204 ) ;
#194 = APPROVAL_DATE_TIME ( #233, #196 ) ;
#195 = DIRECTION ( 'NONE',  ( 0.000000000000000000, 0.000000000000000000, 1.000000000000000000 ) ) ;
#196 = APPROVAL ( #171, 'NEURÈENÝ' ) ;
#197 = CALENDAR_DATE ( 2022, 7, 7 ) ;
#198 = PERSON_AND_ORGANIZATION_ROLE ( 'design_supplier' ) ;
#199 = CC_DESIGN_APPROVAL ( #40, ( #140 ) ) ;
#200 = PERSON_AND_ORGANIZATION ( #253, #71 ) ;
#201 = DIRECTION ( 'NONE',  ( 0.000000000000000000, 0.000000000000000000, 1.000000000000000000 ) ) ;
#202 = CYLINDRICAL_SURFACE ( 'NONE', #121, 9.000000000000001776 ) ;
#203 = CARTESIAN_POINT ( 'NONE',  ( 0.000000000000000000, 0.000000000000000000, 0.000000000000000000 ) ) ;
#204 = DIRECTION ( 'NONE',  ( -1.000000000000000000, 0.000000000000000000, 0.000000000000000000 ) ) ;
#205 = ORIENTED_EDGE ( 'NONE', *, *, #243, .F. ) ;
#206 = CC_DESIGN_PERSON_AND_ORGANIZATION_ASSIGNMENT ( #120, #156, ( #64 ) ) ;
#207 = CARTESIAN_POINT ( 'NONE',  ( -12.00000000000000178, 0.000000000000000000, 7.000000000000000000 ) ) ;
#208 = ORIENTED_EDGE ( 'NONE', *, *, #96, .T. ) ;
#209 = LINE ( 'NONE', #182, #38 ) ;
#210 = DIRECTION ( 'NONE',  ( 1.000000000000000000, 0.000000000000000000, 0.000000000000000000 ) ) ;
#211 = AXIS2_PLACEMENT_3D ( 'NONE', #240, #190, #95 ) ;
#212 =( LENGTH_UNIT ( ) NAMED_UNIT ( * ) SI_UNIT ( .MILLI., .METRE. ) );
#213 = DIRECTION ( 'NONE',  ( 1.000000000000000000, 0.000000000000000000, 0.000000000000000000 ) ) ;
#214 =( GEOMETRIC_REPRESENTATION_CONTEXT ( 3 ) GLOBAL_UNCERTAINTY_ASSIGNED_CONTEXT ( ( #232 ) ) GLOBAL_UNIT_ASSIGNED_CONTEXT ( ( #212, #231, #228 ) ) REPRESENTATION_CONTEXT ( 'NONE', 'WORKASPACE' ) );
#215 = ADVANCED_FACE ( 'NONE', ( #54 ), #88, .T. ) ;
#216 = ORIENTED_EDGE ( 'NONE', *, *, #102, .F. ) ;
#217 = ORIENTED_EDGE ( 'NONE', *, *, #69, .F. ) ;
#218 = CARTESIAN_POINT ( 'NONE',  ( 9.000000000000001776, 1.102182119232617911E-15, 322.0000000000000000 ) ) ;
#219 = PRODUCT_RELATED_PRODUCT_CATEGORY ( 'detail', '', ( #10 ) ) ;
#220 = ORIENTED_EDGE ( 'NONE', *, *, #83, .F. ) ;
#221 = FACE_OUTER_BOUND ( 'NONE', #138, .T. ) ;
#222 = VERTEX_POINT ( 'NONE', #218 ) ;
#223 = AXIS2_PLACEMENT_3D ( 'NONE', #37, #78, #77 ) ;
#224 = DIRECTION ( 'NONE',  ( -0.000000000000000000, -0.000000000000000000, -1.000000000000000000 ) ) ;
#225 = CARTESIAN_POINT ( 'NONE',  ( 0.000000000000000000, 0.000000000000000000, 7.000000000000000000 ) ) ;
#226 = EDGE_CURVE ( 'NONE', #241, #65, #85, .T. ) ;
#227 = DIRECTION ( 'NONE',  ( 1.000000000000000000, 0.000000000000000000, 0.000000000000000000 ) ) ;
#228 =( NAMED_UNIT ( * ) SI_UNIT ( $, .STERADIAN. ) SOLID_ANGLE_UNIT ( ) );
#229 = COORDINATED_UNIVERSAL_TIME_OFFSET ( 1, 0, .AHEAD. ) ;
#230 = PERSON_AND_ORGANIZATION ( #253, #71 ) ;
#231 =( NAMED_UNIT ( * ) PLANE_ANGLE_UNIT ( ) SI_UNIT ( $, .RADIAN. ) );
#232 = UNCERTAINTY_MEASURE_WITH_UNIT (LENGTH_MEASURE( 1.000000000000000082E-05 ), #212, 'distance_accuracy_value', 'NONE');
#233 = DATE_AND_TIME ( #154, #249 ) ;
#234 = CIRCLE ( 'NONE', #14, 12.00000000000000178 ) ;
#235 = ORIENTED_EDGE ( 'NONE', *, *, #254, .F. ) ;
#236 = DIRECTION ( 'NONE',  ( 0.000000000000000000, 0.000000000000000000, 1.000000000000000000 ) ) ;
#237 = DIRECTION ( 'NONE',  ( 1.000000000000000000, 0.000000000000000000, -0.000000000000000000 ) ) ;
#238 = CARTESIAN_POINT ( 'NONE',  ( -9.000000000000001776, 0.000000000000000000, 7.000000000000000000 ) ) ;
#239 = ORIENTED_EDGE ( 'NONE', *, *, #137, .T. ) ;
#240 = CARTESIAN_POINT ( 'NONE',  ( 0.000000000000000000, 0.000000000000000000, 322.0000000000000000 ) ) ;
#241 = VERTEX_POINT ( 'NONE', #98 ) ;
#242 = CARTESIAN_POINT ( 'NONE',  ( 0.000000000000000000, 0.000000000000000000, 7.000000000000000000 ) ) ;
#243 = EDGE_CURVE ( 'NONE', #65, #241, #131, .T. ) ;
#244 = VECTOR ( 'NONE', #150, 1000.000000000000000 ) ;
#245 = DIRECTION ( 'NONE',  ( 1.000000000000000000, 0.000000000000000000, 0.000000000000000000 ) ) ;
#246 = CARTESIAN_POINT ( 'NONE',  ( 0.000000000000000000, 0.000000000000000000, 7.000000000000000000 ) ) ;
#247 = CARTESIAN_POINT ( 'NONE',  ( 0.000000000000000000, 0.000000000000000000, 0.000000000000000000 ) ) ;
#248 = APPROVAL_ROLE ( '' ) ;
#249 = LOCAL_TIME ( 19, 4, 58.00000000000000000, #81 ) ;
#250 = MANIFOLD_SOLID_BREP ( 'Pøidat vysunutím3', #153 ) ;
#251 = CIRCLE ( 'NONE', #18, 9.000000000000001776 ) ;
#252 = DATE_AND_TIME ( #179, #101 ) ;
#253 = PERSON ( 'NEURÈENÝ', 'NEURÈENÝ', 'NEURÈENÝ', ('NEURÈENÝ'), ('NEURÈENÝ'), ('NEURÈENÝ') ) ;
#254 = EDGE_CURVE ( 'NONE', #52, #92, #56, .T. ) ;
#255 = PERSON_AND_ORGANIZATION ( #253, #71 ) ;
ENDSEC;
END-ISO-10303-21;
