ISO-10303-21;
HEADER;
FILE_DESCRIPTION (( 'STEP AP203' ),
    '1' );
FILE_NAME ('1891.STEP',
    '2022-07-07T17:41:31',
    ( '' ),
    ( '' ),
    'SwSTEP 2.0',
    'SolidWorks 2019',
    '' );
FILE_SCHEMA (( 'CONFIG_CONTROL_DESIGN' ));
ENDSEC;

DATA;
#1 = CALENDAR_DATE ( 2022, 7, 7 ) ;
#2 = CIRCLE ( 'NONE', #46, 5.000000000000000000 ) ;
#3 = ORIENTED_EDGE ( 'NONE', *, *, #96, .T. ) ;
#4 = CARTESIAN_POINT ( 'NONE',  ( 0.000000000000000000, 0.000000000000000000, 3.000000000000000000 ) ) ;
#5 = LOCAL_TIME ( 19, 41, 31.00000000000000000, #117 ) ;
#6 = DATE_TIME_ROLE ( 'creation_date' ) ;
#7 = VERTEX_POINT ( 'NONE', #8 ) ;
#8 = CARTESIAN_POINT ( 'NONE',  ( 5.000000000000000000, 6.123233995736766282E-16, 3.000000000000000000 ) ) ;
#9 = DIRECTION ( 'NONE',  ( 0.000000000000000000, 0.000000000000000000, 1.000000000000000000 ) ) ;
#10 = DIRECTION ( 'NONE',  ( -0.000000000000000000, -0.000000000000000000, -1.000000000000000000 ) ) ;
#11 = CARTESIAN_POINT ( 'NONE',  ( 0.000000000000000000, 0.000000000000000000, 0.000000000000000000 ) ) ;
#12 = AXIS2_PLACEMENT_3D ( 'NONE', #91, #166, #73 ) ;
#13 = CARTESIAN_POINT ( 'NONE',  ( 5.000000000000000000, 6.123233995736766282E-16, 0.000000000000000000 ) ) ;
#14 = CARTESIAN_POINT ( 'NONE',  ( 0.000000000000000000, 0.000000000000000000, 0.000000000000000000 ) ) ;
#15 = DIRECTION ( 'NONE',  ( 0.000000000000000000, 0.000000000000000000, 1.000000000000000000 ) ) ;
#16 = AXIS2_PLACEMENT_3D ( 'NONE', #4, #66, #159 ) ;
#17 = PERSON_AND_ORGANIZATION_ROLE ( 'design_owner' ) ;
#18 = CC_DESIGN_PERSON_AND_ORGANIZATION_ASSIGNMENT ( #134, #141, ( #155 ) ) ;
#19 = PERSON_AND_ORGANIZATION_ROLE ( 'creator' ) ;
#20 = EDGE_LOOP ( 'NONE', ( #219, #63 ) ) ;
#21 = ORIENTED_EDGE ( 'NONE', *, *, #115, .T. ) ;
#22 = APPROVAL_STATUS ( 'not_yet_approved' ) ;
#23 = EDGE_LOOP ( 'NONE', ( #85, #47, #3, #139 ) ) ;
#24 =( GEOMETRIC_REPRESENTATION_CONTEXT ( 3 ) GLOBAL_UNCERTAINTY_ASSIGNED_CONTEXT ( ( #126 ) ) GLOBAL_UNIT_ASSIGNED_CONTEXT ( ( #254, #110, #210 ) ) REPRESENTATION_CONTEXT ( 'NONE', 'WORKASPACE' ) );
#25 = CALENDAR_DATE ( 2022, 7, 7 ) ;
#26 = AXIS2_PLACEMENT_3D ( 'NONE', #153, #15, #157 ) ;
#27 = CYLINDRICAL_SURFACE ( 'NONE', #187, 2.750000000000000000 ) ;
#28 = CARTESIAN_POINT ( 'NONE',  ( 0.000000000000000000, 0.000000000000000000, 503.0000000000000000 ) ) ;
#29 = ADVANCED_FACE ( 'NONE', ( #86 ), #163, .T. ) ;
#30 = CARTESIAN_POINT ( 'NONE',  ( 0.000000000000000000, 0.000000000000000000, 3.000000000000000000 ) ) ;
#31 = DIRECTION ( 'NONE',  ( 1.000000000000000000, 0.000000000000000000, 0.000000000000000000 ) ) ;
#32 = APPROVAL_STATUS ( 'not_yet_approved' ) ;
#33 = AXIS2_PLACEMENT_3D ( 'NONE', #11, #71, #179 ) ;
#34 = DATE_AND_TIME ( #168, #76 ) ;
#35 = COORDINATED_UNIVERSAL_TIME_OFFSET ( 1, 0, .AHEAD. ) ;
#36 = EDGE_CURVE ( 'NONE', #7, #162, #237, .T. ) ;
#37 = DIRECTION ( 'NONE',  ( -0.000000000000000000, -0.000000000000000000, -1.000000000000000000 ) ) ;
#38 = CIRCLE ( 'NONE', #33, 5.000000000000000000 ) ;
#39 = CC_DESIGN_APPROVAL ( #226, ( #155 ) ) ;
#40 = ORIENTED_EDGE ( 'NONE', *, *, #75, .F. ) ;
#41 = DATE_AND_TIME ( #214, #122 ) ;
#42 = ORIENTED_EDGE ( 'NONE', *, *, #75, .T. ) ;
#43 = ADVANCED_FACE ( 'NONE', ( #116 ), #242, .F. ) ;
#44 = AXIS2_PLACEMENT_3D ( 'NONE', #220, #123, #204 ) ;
#45 = PERSON_AND_ORGANIZATION ( #235, #171 ) ;
#46 = AXIS2_PLACEMENT_3D ( 'NONE', #246, #90, #108 ) ;
#47 = ORIENTED_EDGE ( 'NONE', *, *, #158, .F. ) ;
#48 = PERSON_AND_ORGANIZATION ( #235, #171 ) ;
#49 = ORIENTED_EDGE ( 'NONE', *, *, #253, .F. ) ;
#50 = DIRECTION ( 'NONE',  ( 1.000000000000000000, 0.000000000000000000, 0.000000000000000000 ) ) ;
#51 = FACE_OUTER_BOUND ( 'NONE', #23, .T. ) ;
#52 = CARTESIAN_POINT ( 'NONE',  ( 2.750000000000000000, 3.367778697655221012E-16, 3.000000000000000000 ) ) ;
#53 = CARTESIAN_POINT ( 'NONE',  ( -2.750000000000000000, 0.000000000000000000, 503.0000000000000000 ) ) ;
#54 = APPROVAL_PERSON_ORGANIZATION ( #209, #114, #109 ) ;
#55 = DIRECTION ( 'NONE',  ( -0.000000000000000000, -0.000000000000000000, -1.000000000000000000 ) ) ;
#56 = DIRECTION ( 'NONE',  ( -0.000000000000000000, -0.000000000000000000, -1.000000000000000000 ) ) ;
#57 = APPROVAL ( #22, 'NEURÈENÝ' ) ;
#58 = DIRECTION ( 'NONE',  ( 0.000000000000000000, 0.000000000000000000, 1.000000000000000000 ) ) ;
#59 = CIRCLE ( 'NONE', #198, 2.750000000000000000 ) ;
#60 = PERSON_AND_ORGANIZATION ( #235, #171 ) ;
#61 = ORIENTED_EDGE ( 'NONE', *, *, #36, .T. ) ;
#62 = COORDINATED_UNIVERSAL_TIME_OFFSET ( 1, 0, .AHEAD. ) ;
#63 = ORIENTED_EDGE ( 'NONE', *, *, #72, .T. ) ;
#64 = COORDINATED_UNIVERSAL_TIME_OFFSET ( 1, 0, .AHEAD. ) ;
#65 = VERTEX_POINT ( 'NONE', #52 ) ;
#66 = DIRECTION ( 'NONE',  ( -0.000000000000000000, -0.000000000000000000, -1.000000000000000000 ) ) ;
#67 = VECTOR ( 'NONE', #132, 1000.000000000000000 ) ;
#68 = FACE_BOUND ( 'NONE', #216, .T. ) ;
#69 = APPLICATION_CONTEXT ( 'configuration controlled 3d designs of mechanical parts and assemblies' ) ;
#70 = AXIS2_PLACEMENT_3D ( 'NONE', #164, #247, #225 ) ;
#71 = DIRECTION ( 'NONE',  ( 0.000000000000000000, 0.000000000000000000, 1.000000000000000000 ) ) ;
#72 = EDGE_CURVE ( 'NONE', #7, #118, #188, .T. ) ;
#73 = DIRECTION ( 'NONE',  ( 1.000000000000000000, 0.000000000000000000, 0.000000000000000000 ) ) ;
#74 = CARTESIAN_POINT ( 'NONE',  ( -5.000000000000000000, 0.000000000000000000, 3.000000000000000000 ) ) ;
#75 = EDGE_CURVE ( 'NONE', #194, #102, #82, .T. ) ;
#76 = LOCAL_TIME ( 19, 41, 31.00000000000000000, #35 ) ;
#77 = CARTESIAN_POINT ( 'NONE',  ( 2.750000000000000000, 3.367778697655221012E-16, 503.0000000000000000 ) ) ;
#78 = APPLICATION_CONTEXT ( 'configuration controlled 3d designs of mechanical parts and assemblies' ) ;
#79 = CC_DESIGN_DATE_AND_TIME_ASSIGNMENT ( #191, #6, ( #133 ) ) ;
#80 = APPROVAL_DATE_TIME ( #41, #57 ) ;
#81 = ORIENTED_EDGE ( 'NONE', *, *, #253, .T. ) ;
#82 = CIRCLE ( 'NONE', #112, 2.750000000000000000 ) ;
#83 = PERSON_AND_ORGANIZATION_ROLE ( 'creator' ) ;
#84 = EDGE_LOOP ( 'NONE', ( #245, #61, #21, #49 ) ) ;
#85 = ORIENTED_EDGE ( 'NONE', *, *, #238, .F. ) ;
#86 = FACE_OUTER_BOUND ( 'NONE', #200, .T. ) ;
#87 = EDGE_CURVE ( 'NONE', #118, #7, #2, .T. ) ;
#88 = CARTESIAN_POINT ( 'NONE',  ( 0.000000000000000000, 0.000000000000000000, 3.000000000000000000 ) ) ;
#89 = FACE_OUTER_BOUND ( 'NONE', #203, .T. ) ;
#90 = DIRECTION ( 'NONE',  ( 0.000000000000000000, 0.000000000000000000, 1.000000000000000000 ) ) ;
#91 = CARTESIAN_POINT ( 'NONE',  ( 0.000000000000000000, 0.000000000000000000, 3.000000000000000000 ) ) ;
#92 = APPROVAL_PERSON_ORGANIZATION ( #45, #226, #212 ) ;
#93 = LINE ( 'NONE', #74, #67 ) ;
#94 = APPLICATION_PROTOCOL_DEFINITION ( 'international standard', 'config_control_design', 1994, #69 ) ;
#95 = APPROVAL_DATE_TIME ( #119, #226 ) ;
#96 = EDGE_CURVE ( 'NONE', #102, #160, #222, .T. ) ;
#97 = ADVANCED_BREP_SHAPE_REPRESENTATION ( '1891', ( #143, #221 ), #24 ) ;
#98 = ORIENTED_EDGE ( 'NONE', *, *, #158, .T. ) ;
#99 = AXIS2_PLACEMENT_3D ( 'NONE', #88, #55, #128 ) ;
#100 = CLOSED_SHELL ( 'NONE', ( #131, #190, #29, #152, #43, #215, #248 ) ) ;
#101 = DATE_AND_TIME ( #1, #5 ) ;
#102 = VERTEX_POINT ( 'NONE', #53 ) ;
#103 = EDGE_LOOP ( 'NONE', ( #98, #42 ) ) ;
#104 = ORIENTED_EDGE ( 'NONE', *, *, #115, .F. ) ;
#105 = CYLINDRICAL_SURFACE ( 'NONE', #99, 5.000000000000000000 ) ;
#106 = DIRECTION ( 'NONE',  ( 0.000000000000000000, 0.000000000000000000, 1.000000000000000000 ) ) ;
#107 = CARTESIAN_POINT ( 'NONE',  ( 0.000000000000000000, 0.000000000000000000, 503.0000000000000000 ) ) ;
#108 = DIRECTION ( 'NONE',  ( 1.000000000000000000, 0.000000000000000000, 0.000000000000000000 ) ) ;
#109 = APPROVAL_ROLE ( '' ) ;
#110 =( NAMED_UNIT ( * ) PLANE_ANGLE_UNIT ( ) SI_UNIT ( $, .RADIAN. ) );
#111 = AXIS2_PLACEMENT_3D ( 'NONE', #14, #58, #184 ) ;
#112 = AXIS2_PLACEMENT_3D ( 'NONE', #150, #149, #50 ) ;
#113 = APPLICATION_PROTOCOL_DEFINITION ( 'international standard', 'config_control_design', 1994, #78 ) ;
#114 = APPROVAL ( #32, 'NEURÈENÝ' ) ;
#115 = EDGE_CURVE ( 'NONE', #162, #197, #38, .T. ) ;
#116 = FACE_OUTER_BOUND ( 'NONE', #178, .T. ) ;
#117 = COORDINATED_UNIVERSAL_TIME_OFFSET ( 1, 0, .AHEAD. ) ;
#118 = VERTEX_POINT ( 'NONE', #208 ) ;
#119 = DATE_AND_TIME ( #236, #144 ) ;
#120 = ORIENTED_EDGE ( 'NONE', *, *, #36, .F. ) ;
#121 = PRODUCT_RELATED_PRODUCT_CATEGORY ( 'detail', '', ( #233 ) ) ;
#122 = LOCAL_TIME ( 19, 41, 31.00000000000000000, #62 ) ;
#123 = DIRECTION ( 'NONE',  ( 0.000000000000000000, 0.000000000000000000, 1.000000000000000000 ) ) ;
#124 = DIRECTION ( 'NONE',  ( 1.000000000000000000, 0.000000000000000000, 0.000000000000000000 ) ) ;
#125 = CARTESIAN_POINT ( 'NONE',  ( 0.000000000000000000, 0.000000000000000000, 503.0000000000000000 ) ) ;
#126 = UNCERTAINTY_MEASURE_WITH_UNIT (LENGTH_MEASURE( 1.000000000000000082E-05 ), #254, 'distance_accuracy_value', 'NONE');
#127 = DIRECTION ( 'NONE',  ( 0.000000000000000000, 0.000000000000000000, 1.000000000000000000 ) ) ;
#128 = DIRECTION ( 'NONE',  ( -1.000000000000000000, 0.000000000000000000, 0.000000000000000000 ) ) ;
#129 = PRODUCT_DEFINITION_FORMATION_WITH_SPECIFIED_SOURCE ( 'LIBOVOLNÝ', '', #233, .NOT_KNOWN. ) ;
#130 = AXIS2_PLACEMENT_3D ( 'NONE', #125, #165, #207 ) ;
#131 = ADVANCED_FACE ( 'NONE', ( #89 ), #181, .T. ) ;
#132 = DIRECTION ( 'NONE',  ( -0.000000000000000000, -0.000000000000000000, -1.000000000000000000 ) ) ;
#133 = PRODUCT_DEFINITION ( 'NEZNÁMÝ', '', #129, #229 ) ;
#134 = PERSON_AND_ORGANIZATION ( #235, #171 ) ;
#135 = ORIENTED_EDGE ( 'NONE', *, *, #87, .F. ) ;
#136 = APPROVAL_ROLE ( '' ) ;
#137 = ORIENTED_EDGE ( 'NONE', *, *, #238, .T. ) ;
#138 = PERSON_AND_ORGANIZATION ( #235, #171 ) ;
#139 = ORIENTED_EDGE ( 'NONE', *, *, #205, .T. ) ;
#140 = AXIS2_PLACEMENT_3D ( 'NONE', #250, #106, #227 ) ;
#141 = PERSON_AND_ORGANIZATION_ROLE ( 'classification_officer' ) ;
#142 = CARTESIAN_POINT ( 'NONE',  ( 2.750000000000000000, 3.367778697655221012E-16, 503.0000000000000000 ) ) ;
#143 = MANIFOLD_SOLID_BREP ( 'Pøidat vysunutím3', #100 ) ;
#144 = LOCAL_TIME ( 19, 41, 31.00000000000000000, #201 ) ;
#145 = CARTESIAN_POINT ( 'NONE',  ( -5.000000000000000000, 0.000000000000000000, 0.000000000000000000 ) ) ;
#146 = CARTESIAN_POINT ( 'NONE',  ( -2.750000000000000000, 0.000000000000000000, 503.0000000000000000 ) ) ;
#147 = VECTOR ( 'NONE', #10, 1000.000000000000000 ) ;
#148 = CC_DESIGN_PERSON_AND_ORGANIZATION_ASSIGNMENT ( #60, #217, ( #129 ) ) ;
#149 = DIRECTION ( 'NONE',  ( 0.000000000000000000, 0.000000000000000000, 1.000000000000000000 ) ) ;
#150 = CARTESIAN_POINT ( 'NONE',  ( 0.000000000000000000, 0.000000000000000000, 503.0000000000000000 ) ) ;
#151 = DIRECTION ( 'NONE',  ( 1.000000000000000000, 0.000000000000000000, 0.000000000000000000 ) ) ;
#152 = ADVANCED_FACE ( 'NONE', ( #68, #249 ), #183, .T. ) ;
#153 = CARTESIAN_POINT ( 'NONE',  ( 0.000000000000000000, 0.000000000000000000, 503.0000000000000000 ) ) ;
#154 = CARTESIAN_POINT ( 'NONE',  ( 0.000000000000000000, 0.000000000000000000, 0.000000000000000000 ) ) ;
#155 = SECURITY_CLASSIFICATION ( '', '', #172 ) ;
#156 = CC_DESIGN_PERSON_AND_ORGANIZATION_ASSIGNMENT ( #189, #17, ( #233 ) ) ;
#157 = DIRECTION ( 'NONE',  ( 1.000000000000000000, 0.000000000000000000, -0.000000000000000000 ) ) ;
#158 = EDGE_CURVE ( 'NONE', #102, #194, #59, .T. ) ;
#159 = DIRECTION ( 'NONE',  ( -1.000000000000000000, 0.000000000000000000, 0.000000000000000000 ) ) ;
#160 = VERTEX_POINT ( 'NONE', #206 ) ;
#161 = DIRECTION ( 'NONE',  ( -0.000000000000000000, -0.000000000000000000, -1.000000000000000000 ) ) ;
#162 = VERTEX_POINT ( 'NONE', #13 ) ;
#163 = CYLINDRICAL_SURFACE ( 'NONE', #16, 5.000000000000000000 ) ;
#164 = CARTESIAN_POINT ( 'NONE',  ( 0.000000000000000000, 0.000000000000000000, 3.000000000000000000 ) ) ;
#165 = DIRECTION ( 'NONE',  ( -0.000000000000000000, -0.000000000000000000, -1.000000000000000000 ) ) ;
#166 = DIRECTION ( 'NONE',  ( 0.000000000000000000, 0.000000000000000000, 1.000000000000000000 ) ) ;
#167 = EDGE_CURVE ( 'NONE', #65, #160, #170, .T. ) ;
#168 = CALENDAR_DATE ( 2022, 7, 7 ) ;
#169 = DIRECTION ( 'NONE',  ( -1.000000000000000000, 0.000000000000000000, 0.000000000000000000 ) ) ;
#170 = CIRCLE ( 'NONE', #12, 2.750000000000000000 ) ;
#171 = ORGANIZATION ( 'NEURÈENÝ', 'NEURÈENÝ', '' ) ;
#172 = SECURITY_CLASSIFICATION_LEVEL ( 'unclassified' ) ;
#173 = ORIENTED_EDGE ( 'NONE', *, *, #167, .F. ) ;
#174 = ORIENTED_EDGE ( 'NONE', *, *, #231, .F. ) ;
#175 = APPROVAL_PERSON_ORGANIZATION ( #138, #57, #136 ) ;
#176 = ORIENTED_EDGE ( 'NONE', *, *, #205, .F. ) ;
#177 = PERSON_AND_ORGANIZATION ( #235, #171 ) ;
#178 = EDGE_LOOP ( 'NONE', ( #174, #104 ) ) ;
#179 = DIRECTION ( 'NONE',  ( 1.000000000000000000, 0.000000000000000000, 0.000000000000000000 ) ) ;
#180 = CC_DESIGN_PERSON_AND_ORGANIZATION_ASSIGNMENT ( #177, #83, ( #133 ) ) ;
#181 = CYLINDRICAL_SURFACE ( 'NONE', #130, 2.750000000000000000 ) ;
#182 = VECTOR ( 'NONE', #56, 1000.000000000000000 ) ;
#183 = PLANE ( 'NONE',  #70 ) ;
#184 = DIRECTION ( 'NONE',  ( 1.000000000000000000, 0.000000000000000000, 0.000000000000000000 ) ) ;
#185 = APPROVAL_DATE_TIME ( #34, #114 ) ;
#186 = MECHANICAL_CONTEXT ( 'NONE', #78, 'mechanical' ) ;
#187 = AXIS2_PLACEMENT_3D ( 'NONE', #28, #37, #169 ) ;
#188 = CIRCLE ( 'NONE', #224, 5.000000000000000000 ) ;
#189 = PERSON_AND_ORGANIZATION ( #235, #171 ) ;
#190 = ADVANCED_FACE ( 'NONE', ( #228 ), #105, .T. ) ;
#191 = DATE_AND_TIME ( #25, #211 ) ;
#192 = CIRCLE ( 'NONE', #44, 2.750000000000000000 ) ;
#193 = CC_DESIGN_SECURITY_CLASSIFICATION ( #155, ( #129 ) ) ;
#194 = VERTEX_POINT ( 'NONE', #142 ) ;
#195 = CC_DESIGN_DATE_AND_TIME_ASSIGNMENT ( #101, #199, ( #155 ) ) ;
#196 = SHAPE_DEFINITION_REPRESENTATION ( #230, #97 ) ;
#197 = VERTEX_POINT ( 'NONE', #145 ) ;
#198 = AXIS2_PLACEMENT_3D ( 'NONE', #107, #127, #31 ) ;
#199 = DATE_TIME_ROLE ( 'classification_date' ) ;
#200 = EDGE_LOOP ( 'NONE', ( #120, #135, #81, #243 ) ) ;
#201 = COORDINATED_UNIVERSAL_TIME_OFFSET ( 1, 0, .AHEAD. ) ;
#202 = CC_DESIGN_APPROVAL ( #114, ( #133 ) ) ;
#203 = EDGE_LOOP ( 'NONE', ( #40, #137, #239, #218 ) ) ;
#204 = DIRECTION ( 'NONE',  ( 1.000000000000000000, 0.000000000000000000, 0.000000000000000000 ) ) ;
#205 = EDGE_CURVE ( 'NONE', #160, #65, #192, .T. ) ;
#206 = CARTESIAN_POINT ( 'NONE',  ( -2.750000000000000000, 0.000000000000000000, 3.000000000000000000 ) ) ;
#207 = DIRECTION ( 'NONE',  ( -1.000000000000000000, 0.000000000000000000, 0.000000000000000000 ) ) ;
#208 = CARTESIAN_POINT ( 'NONE',  ( -5.000000000000000000, 0.000000000000000000, 3.000000000000000000 ) ) ;
#209 = PERSON_AND_ORGANIZATION ( #235, #171 ) ;
#210 =( NAMED_UNIT ( * ) SI_UNIT ( $, .STERADIAN. ) SOLID_ANGLE_UNIT ( ) );
#211 = LOCAL_TIME ( 19, 41, 31.00000000000000000, #64 ) ;
#212 = APPROVAL_ROLE ( '' ) ;
#213 = CARTESIAN_POINT ( 'NONE',  ( 5.000000000000000000, 6.123233995736766282E-16, 3.000000000000000000 ) ) ;
#214 = CALENDAR_DATE ( 2022, 7, 7 ) ;
#215 = ADVANCED_FACE ( 'NONE', ( #51 ), #27, .T. ) ;
#216 = EDGE_LOOP ( 'NONE', ( #176, #173 ) ) ;
#217 = PERSON_AND_ORGANIZATION_ROLE ( 'design_supplier' ) ;
#218 = ORIENTED_EDGE ( 'NONE', *, *, #96, .F. ) ;
#219 = ORIENTED_EDGE ( 'NONE', *, *, #87, .T. ) ;
#220 = CARTESIAN_POINT ( 'NONE',  ( 0.000000000000000000, 0.000000000000000000, 3.000000000000000000 ) ) ;
#221 = AXIS2_PLACEMENT_3D ( 'NONE', #154, #251, #151 ) ;
#222 = LINE ( 'NONE', #146, #147 ) ;
#223 = CIRCLE ( 'NONE', #111, 5.000000000000000000 ) ;
#224 = AXIS2_PLACEMENT_3D ( 'NONE', #30, #9, #124 ) ;
#225 = DIRECTION ( 'NONE',  ( 1.000000000000000000, 0.000000000000000000, -0.000000000000000000 ) ) ;
#226 = APPROVAL ( #241, 'NEURÈENÝ' ) ;
#227 = DIRECTION ( 'NONE',  ( 1.000000000000000000, 0.000000000000000000, -0.000000000000000000 ) ) ;
#228 = FACE_OUTER_BOUND ( 'NONE', #84, .T. ) ;
#229 = DESIGN_CONTEXT ( 'detailed design', #69, 'design' ) ;
#230 = PRODUCT_DEFINITION_SHAPE ( 'NONE', 'NONE',  #133 ) ;
#231 = EDGE_CURVE ( 'NONE', #197, #162, #223, .T. ) ;
#232 = FACE_OUTER_BOUND ( 'NONE', #103, .T. ) ;
#233 = PRODUCT ( '1891', '1891', '', ( #186 ) ) ;
#234 = LINE ( 'NONE', #77, #182 ) ;
#235 = PERSON ( 'NEURÈENÝ', 'NEURÈENÝ', 'NEURÈENÝ', ('NEURÈENÝ'), ('NEURÈENÝ'), ('NEURÈENÝ') ) ;
#236 = CALENDAR_DATE ( 2022, 7, 7 ) ;
#237 = LINE ( 'NONE', #213, #255 ) ;
#238 = EDGE_CURVE ( 'NONE', #194, #65, #234, .T. ) ;
#239 = ORIENTED_EDGE ( 'NONE', *, *, #167, .T. ) ;
#240 = CC_DESIGN_APPROVAL ( #57, ( #129 ) ) ;
#241 = APPROVAL_STATUS ( 'not_yet_approved' ) ;
#242 = PLANE ( 'NONE',  #140 ) ;
#243 = ORIENTED_EDGE ( 'NONE', *, *, #231, .T. ) ;
#244 = CC_DESIGN_PERSON_AND_ORGANIZATION_ASSIGNMENT ( #48, #19, ( #129 ) ) ;
#245 = ORIENTED_EDGE ( 'NONE', *, *, #72, .F. ) ;
#246 = CARTESIAN_POINT ( 'NONE',  ( 0.000000000000000000, 0.000000000000000000, 3.000000000000000000 ) ) ;
#247 = DIRECTION ( 'NONE',  ( 0.000000000000000000, 0.000000000000000000, 1.000000000000000000 ) ) ;
#248 = ADVANCED_FACE ( 'NONE', ( #232 ), #252, .T. ) ;
#249 = FACE_OUTER_BOUND ( 'NONE', #20, .T. ) ;
#250 = CARTESIAN_POINT ( 'NONE',  ( 0.000000000000000000, 0.000000000000000000, 0.000000000000000000 ) ) ;
#251 = DIRECTION ( 'NONE',  ( 0.000000000000000000, 0.000000000000000000, 1.000000000000000000 ) ) ;
#252 = PLANE ( 'NONE',  #26 ) ;
#253 = EDGE_CURVE ( 'NONE', #118, #197, #93, .T. ) ;
#254 =( LENGTH_UNIT ( ) NAMED_UNIT ( * ) SI_UNIT ( .MILLI., .METRE. ) );
#255 = VECTOR ( 'NONE', #161, 1000.000000000000000 ) ;
ENDSEC;
END-ISO-10303-21;
