ISO-10303-21;
HEADER;
FILE_DESCRIPTION (( 'STEP AP203' ),
    '1' );
FILE_NAME ('78bd.STEP',
    '2022-07-07T17:59:40',
    ( '' ),
    ( '' ),
    'SwSTEP 2.0',
    'SolidWorks 2019',
    '' );
FILE_SCHEMA (( 'CONFIG_CONTROL_DESIGN' ));
ENDSEC;

DATA;
#1 = ORIENTED_EDGE ( 'NONE', *, *, #191, .F. ) ;
#2 = APPROVAL_STATUS ( 'not_yet_approved' ) ;
#3 = ORIENTED_EDGE ( 'NONE', *, *, #117, .T. ) ;
#4 = CIRCLE ( 'NONE', #37, 2.000000000000000000 ) ;
#5 = CARTESIAN_POINT ( 'NONE',  ( -2.000000000000000000, 0.000000000000000000, 2.000000000000000000 ) ) ;
#6 = EDGE_LOOP ( 'NONE', ( #24, #21 ) ) ;
#7 = FACE_OUTER_BOUND ( 'NONE', #201, .T. ) ;
#8 = CYLINDRICAL_SURFACE ( 'NONE', #91, 2.000000000000000000 ) ;
#9 = LOCAL_TIME ( 19, 59, 40.00000000000000000, #177 ) ;
#10 = CARTESIAN_POINT ( 'NONE',  ( 0.000000000000000000, 0.000000000000000000, 2.000000000000000000 ) ) ;
#11 = CARTESIAN_POINT ( 'NONE',  ( 0.000000000000000000, 0.000000000000000000, 2.000000000000000000 ) ) ;
#12 = PERSON_AND_ORGANIZATION_ROLE ( 'classification_officer' ) ;
#13 = PERSON_AND_ORGANIZATION ( #150, #23 ) ;
#14 = APPROVAL_PERSON_ORGANIZATION ( #13, #96, #134 ) ;
#15 = PERSON_AND_ORGANIZATION ( #150, #23 ) ;
#16 = APPROVAL_STATUS ( 'not_yet_approved' ) ;
#17 = PERSON_AND_ORGANIZATION_ROLE ( 'design_owner' ) ;
#18 = ORIENTED_EDGE ( 'NONE', *, *, #244, .F. ) ;
#19 = CIRCLE ( 'NONE', #193, 1.100000000000000089 ) ;
#20 = DIRECTION ( 'NONE',  ( 0.000000000000000000, 0.000000000000000000, 1.000000000000000000 ) ) ;
#21 = ORIENTED_EDGE ( 'NONE', *, *, #112, .T. ) ;
#22 = APPLICATION_PROTOCOL_DEFINITION ( 'international standard', 'config_control_design', 1994, #94 ) ;
#23 = ORGANIZATION ( 'NEURÈENÝ', 'NEURÈENÝ', '' ) ;
#24 = ORIENTED_EDGE ( 'NONE', *, *, #82, .T. ) ;
#25 = APPLICATION_PROTOCOL_DEFINITION ( 'international standard', 'config_control_design', 1994, #72 ) ;
#26 = EDGE_CURVE ( 'NONE', #64, #146, #43, .T. ) ;
#27 = FACE_BOUND ( 'NONE', #105, .T. ) ;
#28 = AXIS2_PLACEMENT_3D ( 'NONE', #126, #130, #245 ) ;
#29 = ORIENTED_EDGE ( 'NONE', *, *, #227, .T. ) ;
#30 = FACE_OUTER_BOUND ( 'NONE', #6, .T. ) ;
#31 = DIRECTION ( 'NONE',  ( 1.000000000000000000, 0.000000000000000000, -0.000000000000000000 ) ) ;
#32 = CC_DESIGN_DATE_AND_TIME_ASSIGNMENT ( #39, #76, ( #74 ) ) ;
#33 = DIRECTION ( 'NONE',  ( 0.000000000000000000, 0.000000000000000000, 1.000000000000000000 ) ) ;
#34 = CARTESIAN_POINT ( 'NONE',  ( 0.000000000000000000, 0.000000000000000000, 252.0000000000000000 ) ) ;
#35 = APPROVAL_ROLE ( '' ) ;
#36 = EDGE_CURVE ( 'NONE', #146, #148, #49, .T. ) ;
#37 = AXIS2_PLACEMENT_3D ( 'NONE', #11, #175, #66 ) ;
#38 = APPROVAL_PERSON_ORGANIZATION ( #104, #88, #106 ) ;
#39 = DATE_AND_TIME ( #219, #9 ) ;
#40 = ORIENTED_EDGE ( 'NONE', *, *, #26, .F. ) ;
#41 = CC_DESIGN_PERSON_AND_ORGANIZATION_ASSIGNMENT ( #157, #12, ( #100 ) ) ;
#42 = DIRECTION ( 'NONE',  ( -1.000000000000000000, 0.000000000000000000, 0.000000000000000000 ) ) ;
#43 = LINE ( 'NONE', #180, #159 ) ;
#44 = LINE ( 'NONE', #5, #103 ) ;
#45 = ORIENTED_EDGE ( 'NONE', *, *, #36, .F. ) ;
#46 = ADVANCED_FACE ( 'NONE', ( #27, #7 ), #190, .T. ) ;
#47 = ORIENTED_EDGE ( 'NONE', *, *, #199, .T. ) ;
#48 = UNCERTAINTY_MEASURE_WITH_UNIT (LENGTH_MEASURE( 1.000000000000000082E-05 ), #79, 'distance_accuracy_value', 'NONE');
#49 = CIRCLE ( 'NONE', #132, 2.000000000000000000 ) ;
#50 = CYLINDRICAL_SURFACE ( 'NONE', #28, 1.100000000000000089 ) ;
#51 = CARTESIAN_POINT ( 'NONE',  ( 0.000000000000000000, 0.000000000000000000, 2.000000000000000000 ) ) ;
#52 = DIRECTION ( 'NONE',  ( 1.000000000000000000, 0.000000000000000000, 0.000000000000000000 ) ) ;
#53 = DIRECTION ( 'NONE',  ( 0.000000000000000000, 0.000000000000000000, 1.000000000000000000 ) ) ;
#54 = PRODUCT_RELATED_PRODUCT_CATEGORY ( 'detail', '', ( #135 ) ) ;
#55 = AXIS2_PLACEMENT_3D ( 'NONE', #208, #89, #223 ) ;
#56 = CIRCLE ( 'NONE', #169, 1.100000000000000089 ) ;
#57 = COORDINATED_UNIVERSAL_TIME_OFFSET ( 1, 0, .AHEAD. ) ;
#58 = COORDINATED_UNIVERSAL_TIME_OFFSET ( 1, 0, .AHEAD. ) ;
#59 = ORIENTED_EDGE ( 'NONE', *, *, #147, .T. ) ;
#60 = DIRECTION ( 'NONE',  ( -0.000000000000000000, -0.000000000000000000, -1.000000000000000000 ) ) ;
#61 = ORIENTED_EDGE ( 'NONE', *, *, #252, .T. ) ;
#62 = ADVANCED_FACE ( 'NONE', ( #243 ), #154, .T. ) ;
#63 = PERSON_AND_ORGANIZATION ( #150, #23 ) ;
#64 = VERTEX_POINT ( 'NONE', #152 ) ;
#65 = CARTESIAN_POINT ( 'NONE',  ( 0.000000000000000000, 0.000000000000000000, 252.0000000000000000 ) ) ;
#66 = DIRECTION ( 'NONE',  ( 1.000000000000000000, 0.000000000000000000, 0.000000000000000000 ) ) ;
#67 = CARTESIAN_POINT ( 'NONE',  ( 1.100000000000000089, 1.347111479062088503E-16, 252.0000000000000000 ) ) ;
#68 = CARTESIAN_POINT ( 'NONE',  ( -1.100000000000000089, 0.000000000000000000, 252.0000000000000000 ) ) ;
#69 = CC_DESIGN_PERSON_AND_ORGANIZATION_ASSIGNMENT ( #81, #17, ( #135 ) ) ;
#70 = AXIS2_PLACEMENT_3D ( 'NONE', #51, #153, #128 ) ;
#71 = CARTESIAN_POINT ( 'NONE',  ( 0.000000000000000000, 0.000000000000000000, 2.000000000000000000 ) ) ;
#72 = APPLICATION_CONTEXT ( 'configuration controlled 3d designs of mechanical parts and assemblies' ) ;
#73 = CC_DESIGN_SECURITY_CLASSIFICATION ( #100, ( #83 ) ) ;
#74 = PRODUCT_DEFINITION ( 'NEZNÁMÝ', '', #83, #221 ) ;
#75 = DATE_AND_TIME ( #158, #109 ) ;
#76 = DATE_TIME_ROLE ( 'creation_date' ) ;
#77 = CALENDAR_DATE ( 2022, 7, 7 ) ;
#78 = CC_DESIGN_APPROVAL ( #224, ( #83 ) ) ;
#79 =( LENGTH_UNIT ( ) NAMED_UNIT ( * ) SI_UNIT ( .MILLI., .METRE. ) );
#80 = ORIENTED_EDGE ( 'NONE', *, *, #112, .F. ) ;
#81 = PERSON_AND_ORGANIZATION ( #150, #23 ) ;
#82 = EDGE_CURVE ( 'NONE', #141, #144, #19, .T. ) ;
#83 = PRODUCT_DEFINITION_FORMATION_WITH_SPECIFIED_SOURCE ( 'LIBOVOLNÝ', '', #135, .NOT_KNOWN. ) ;
#84 = DATE_AND_TIME ( #77, #122 ) ;
#85 = VERTEX_POINT ( 'NONE', #225 ) ;
#86 =( NAMED_UNIT ( * ) SI_UNIT ( $, .STERADIAN. ) SOLID_ANGLE_UNIT ( ) );
#87 = EDGE_LOOP ( 'NONE', ( #197, #204, #47, #59 ) ) ;
#88 = APPROVAL ( #2, 'NEURÈENÝ' ) ;
#89 = DIRECTION ( 'NONE',  ( -0.000000000000000000, -0.000000000000000000, -1.000000000000000000 ) ) ;
#90 = DIRECTION ( 'NONE',  ( 1.000000000000000000, 0.000000000000000000, 0.000000000000000000 ) ) ;
#91 = AXIS2_PLACEMENT_3D ( 'NONE', #171, #238, #42 ) ;
#92 = ADVANCED_FACE ( 'NONE', ( #188 ), #149, .T. ) ;
#93 = DIRECTION ( 'NONE',  ( -1.000000000000000000, 0.000000000000000000, 0.000000000000000000 ) ) ;
#94 = APPLICATION_CONTEXT ( 'configuration controlled 3d designs of mechanical parts and assemblies' ) ;
#95 = DIRECTION ( 'NONE',  ( 1.000000000000000000, 0.000000000000000000, -0.000000000000000000 ) ) ;
#96 = APPROVAL ( #16, 'NEURÈENÝ' ) ;
#97 = DATE_AND_TIME ( #118, #229 ) ;
#98 = CARTESIAN_POINT ( 'NONE',  ( 0.000000000000000000, 0.000000000000000000, 2.000000000000000000 ) ) ;
#99 = CLOSED_SHELL ( 'NONE', ( #136, #62, #209, #46, #232, #92, #183 ) ) ;
#100 = SECURITY_CLASSIFICATION ( '', '', #235 ) ;
#101 = CARTESIAN_POINT ( 'NONE',  ( 0.000000000000000000, 0.000000000000000000, 0.000000000000000000 ) ) ;
#102 = EDGE_LOOP ( 'NONE', ( #40, #124, #61, #162 ) ) ;
#103 = VECTOR ( 'NONE', #143, 1000.000000000000000 ) ;
#104 = PERSON_AND_ORGANIZATION ( #150, #23 ) ;
#105 = EDGE_LOOP ( 'NONE', ( #163, #18 ) ) ;
#106 = APPROVAL_ROLE ( '' ) ;
#107 = AXIS2_PLACEMENT_3D ( 'NONE', #10, #151, #93 ) ;
#108 = EDGE_LOOP ( 'NONE', ( #1, #125, #120, #237 ) ) ;
#109 = LOCAL_TIME ( 19, 59, 40.00000000000000000, #139 ) ;
#110 = DIRECTION ( 'NONE',  ( 0.000000000000000000, 0.000000000000000000, 1.000000000000000000 ) ) ;
#111 = CARTESIAN_POINT ( 'NONE',  ( -1.100000000000000089, 0.000000000000000000, 252.0000000000000000 ) ) ;
#112 = EDGE_CURVE ( 'NONE', #144, #141, #56, .T. ) ;
#113 = LINE ( 'NONE', #111, #131 ) ;
#114 = CARTESIAN_POINT ( 'NONE',  ( 0.000000000000000000, 0.000000000000000000, 2.000000000000000000 ) ) ;
#115 = AXIS2_PLACEMENT_3D ( 'NONE', #71, #172, #95 ) ;
#116 = APPROVAL_STATUS ( 'not_yet_approved' ) ;
#117 = EDGE_CURVE ( 'NONE', #168, #64, #4, .T. ) ;
#118 = CALENDAR_DATE ( 2022, 7, 7 ) ;
#119 = PLANE ( 'NONE',  #231 ) ;
#120 = ORIENTED_EDGE ( 'NONE', *, *, #36, .T. ) ;
#121 = ORIENTED_EDGE ( 'NONE', *, *, #191, .T. ) ;
#122 = LOCAL_TIME ( 19, 59, 40.00000000000000000, #140 ) ;
#123 = CARTESIAN_POINT ( 'NONE',  ( -1.100000000000000089, 0.000000000000000000, 2.000000000000000000 ) ) ;
#124 = ORIENTED_EDGE ( 'NONE', *, *, #117, .F. ) ;
#125 = ORIENTED_EDGE ( 'NONE', *, *, #26, .T. ) ;
#126 = CARTESIAN_POINT ( 'NONE',  ( 0.000000000000000000, 0.000000000000000000, 252.0000000000000000 ) ) ;
#127 = PRODUCT_DEFINITION_SHAPE ( 'NONE', 'NONE',  #74 ) ;
#128 = DIRECTION ( 'NONE',  ( 1.000000000000000000, 0.000000000000000000, 0.000000000000000000 ) ) ;
#129 = FACE_OUTER_BOUND ( 'NONE', #102, .T. ) ;
#130 = DIRECTION ( 'NONE',  ( -0.000000000000000000, -0.000000000000000000, -1.000000000000000000 ) ) ;
#131 = VECTOR ( 'NONE', #189, 1000.000000000000000 ) ;
#132 = AXIS2_PLACEMENT_3D ( 'NONE', #203, #182, #239 ) ;
#133 =( GEOMETRIC_REPRESENTATION_CONTEXT ( 3 ) GLOBAL_UNCERTAINTY_ASSIGNED_CONTEXT ( ( #48 ) ) GLOBAL_UNIT_ASSIGNED_CONTEXT ( ( #79, #196, #86 ) ) REPRESENTATION_CONTEXT ( 'NONE', 'WORKASPACE' ) );
#134 = APPROVAL_ROLE ( '' ) ;
#135 = PRODUCT ( '78bd', '78bd', '', ( #198 ) ) ;
#136 = ADVANCED_FACE ( 'NONE', ( #170 ), #50, .T. ) ;
#137 = SHAPE_DEFINITION_REPRESENTATION ( #127, #249 ) ;
#138 = AXIS2_PLACEMENT_3D ( 'NONE', #228, #53, #52 ) ;
#139 = COORDINATED_UNIVERSAL_TIME_OFFSET ( 1, 0, .AHEAD. ) ;
#140 = COORDINATED_UNIVERSAL_TIME_OFFSET ( 1, 0, .AHEAD. ) ;
#141 = VERTEX_POINT ( 'NONE', #68 ) ;
#142 = CC_DESIGN_PERSON_AND_ORGANIZATION_ASSIGNMENT ( #176, #233, ( #83 ) ) ;
#143 = DIRECTION ( 'NONE',  ( -0.000000000000000000, -0.000000000000000000, -1.000000000000000000 ) ) ;
#144 = VERTEX_POINT ( 'NONE', #67 ) ;
#145 = PERSON_AND_ORGANIZATION_ROLE ( 'creator' ) ;
#146 = VERTEX_POINT ( 'NONE', #205 ) ;
#147 = EDGE_CURVE ( 'NONE', #217, #85, #212, .T. ) ;
#148 = VERTEX_POINT ( 'NONE', #226 ) ;
#149 = CYLINDRICAL_SURFACE ( 'NONE', #55, 1.100000000000000089 ) ;
#150 = PERSON ( 'NEURÈENÝ', 'NEURÈENÝ', 'NEURÈENÝ', ('NEURÈENÝ'), ('NEURÈENÝ'), ('NEURÈENÝ') ) ;
#151 = DIRECTION ( 'NONE',  ( -0.000000000000000000, -0.000000000000000000, -1.000000000000000000 ) ) ;
#152 = CARTESIAN_POINT ( 'NONE',  ( 2.000000000000000000, 2.449293598294706414E-16, 2.000000000000000000 ) ) ;
#153 = DIRECTION ( 'NONE',  ( 0.000000000000000000, 0.000000000000000000, 1.000000000000000000 ) ) ;
#154 = CYLINDRICAL_SURFACE ( 'NONE', #107, 2.000000000000000000 ) ;
#155 = APPROVAL_PERSON_ORGANIZATION ( #15, #224, #35 ) ;
#156 = AXIS2_PLACEMENT_3D ( 'NONE', #101, #216, #214 ) ;
#157 = PERSON_AND_ORGANIZATION ( #150, #23 ) ;
#158 = CALENDAR_DATE ( 2022, 7, 7 ) ;
#159 = VECTOR ( 'NONE', #220, 1000.000000000000000 ) ;
#160 = DIRECTION ( 'NONE',  ( 0.000000000000000000, 0.000000000000000000, 1.000000000000000000 ) ) ;
#161 = PERSON_AND_ORGANIZATION ( #150, #23 ) ;
#162 = ORIENTED_EDGE ( 'NONE', *, *, #166, .T. ) ;
#163 = ORIENTED_EDGE ( 'NONE', *, *, #147, .F. ) ;
#164 = DIRECTION ( 'NONE',  ( 1.000000000000000000, 0.000000000000000000, 0.000000000000000000 ) ) ;
#165 = EDGE_LOOP ( 'NONE', ( #80, #29, #186, #184 ) ) ;
#166 = EDGE_CURVE ( 'NONE', #148, #146, #247, .T. ) ;
#167 = LOCAL_TIME ( 19, 59, 40.00000000000000000, #58 ) ;
#168 = VERTEX_POINT ( 'NONE', #207 ) ;
#169 = AXIS2_PLACEMENT_3D ( 'NONE', #65, #33, #90 ) ;
#170 = FACE_OUTER_BOUND ( 'NONE', #165, .T. ) ;
#171 = CARTESIAN_POINT ( 'NONE',  ( 0.000000000000000000, 0.000000000000000000, 2.000000000000000000 ) ) ;
#172 = DIRECTION ( 'NONE',  ( 0.000000000000000000, 0.000000000000000000, 1.000000000000000000 ) ) ;
#173 = CIRCLE ( 'NONE', #195, 2.000000000000000000 ) ;
#174 = AXIS2_PLACEMENT_3D ( 'NONE', #34, #110, #31 ) ;
#175 = DIRECTION ( 'NONE',  ( 0.000000000000000000, 0.000000000000000000, 1.000000000000000000 ) ) ;
#176 = PERSON_AND_ORGANIZATION ( #150, #23 ) ;
#177 = COORDINATED_UNIVERSAL_TIME_OFFSET ( 1, 0, .AHEAD. ) ;
#178 = APPROVAL_DATE_TIME ( #194, #96 ) ;
#179 = CC_DESIGN_PERSON_AND_ORGANIZATION_ASSIGNMENT ( #161, #251, ( #83 ) ) ;
#180 = CARTESIAN_POINT ( 'NONE',  ( 2.000000000000000000, 2.449293598294706414E-16, 2.000000000000000000 ) ) ;
#181 = CC_DESIGN_APPROVAL ( #96, ( #100 ) ) ;
#182 = DIRECTION ( 'NONE',  ( 0.000000000000000000, 0.000000000000000000, 1.000000000000000000 ) ) ;
#183 = ADVANCED_FACE ( 'NONE', ( #30 ), #210, .T. ) ;
#184 = ORIENTED_EDGE ( 'NONE', *, *, #199, .F. ) ;
#185 = CARTESIAN_POINT ( 'NONE',  ( 0.000000000000000000, 0.000000000000000000, 0.000000000000000000 ) ) ;
#186 = ORIENTED_EDGE ( 'NONE', *, *, #244, .T. ) ;
#187 = CC_DESIGN_APPROVAL ( #88, ( #74 ) ) ;
#188 = FACE_OUTER_BOUND ( 'NONE', #87, .T. ) ;
#189 = DIRECTION ( 'NONE',  ( -0.000000000000000000, -0.000000000000000000, -1.000000000000000000 ) ) ;
#190 = PLANE ( 'NONE',  #115 ) ;
#191 = EDGE_CURVE ( 'NONE', #64, #168, #173, .T. ) ;
#192 = DIRECTION ( 'NONE',  ( 1.000000000000000000, 0.000000000000000000, 0.000000000000000000 ) ) ;
#193 = AXIS2_PLACEMENT_3D ( 'NONE', #230, #242, #246 ) ;
#194 = DATE_AND_TIME ( #254, #167 ) ;
#195 = AXIS2_PLACEMENT_3D ( 'NONE', #114, #248, #192 ) ;
#196 =( NAMED_UNIT ( * ) PLANE_ANGLE_UNIT ( ) SI_UNIT ( $, .RADIAN. ) );
#197 = ORIENTED_EDGE ( 'NONE', *, *, #227, .F. ) ;
#198 = MECHANICAL_CONTEXT ( 'NONE', #94, 'mechanical' ) ;
#199 = EDGE_CURVE ( 'NONE', #141, #217, #113, .T. ) ;
#200 = AXIS2_PLACEMENT_3D ( 'NONE', #98, #20, #164 ) ;
#201 = EDGE_LOOP ( 'NONE', ( #3, #121 ) ) ;
#202 = DIRECTION ( 'NONE',  ( 1.000000000000000000, 0.000000000000000000, -0.000000000000000000 ) ) ;
#203 = CARTESIAN_POINT ( 'NONE',  ( 0.000000000000000000, 0.000000000000000000, 0.000000000000000000 ) ) ;
#204 = ORIENTED_EDGE ( 'NONE', *, *, #82, .F. ) ;
#205 = CARTESIAN_POINT ( 'NONE',  ( 2.000000000000000000, 2.449293598294706414E-16, 0.000000000000000000 ) ) ;
#206 = CC_DESIGN_PERSON_AND_ORGANIZATION_ASSIGNMENT ( #63, #145, ( #74 ) ) ;
#207 = CARTESIAN_POINT ( 'NONE',  ( -2.000000000000000000, 0.000000000000000000, 2.000000000000000000 ) ) ;
#208 = CARTESIAN_POINT ( 'NONE',  ( 0.000000000000000000, 0.000000000000000000, 252.0000000000000000 ) ) ;
#209 = ADVANCED_FACE ( 'NONE', ( #129 ), #8, .T. ) ;
#210 = PLANE ( 'NONE',  #174 ) ;
#211 = CIRCLE ( 'NONE', #200, 1.100000000000000089 ) ;
#212 = CIRCLE ( 'NONE', #70, 1.100000000000000089 ) ;
#213 = DATE_TIME_ROLE ( 'classification_date' ) ;
#214 = DIRECTION ( 'NONE',  ( 1.000000000000000000, 0.000000000000000000, 0.000000000000000000 ) ) ;
#215 = VECTOR ( 'NONE', #60, 1000.000000000000000 ) ;
#216 = DIRECTION ( 'NONE',  ( 0.000000000000000000, 0.000000000000000000, 1.000000000000000000 ) ) ;
#217 = VERTEX_POINT ( 'NONE', #123 ) ;
#218 = EDGE_LOOP ( 'NONE', ( #222, #45 ) ) ;
#219 = CALENDAR_DATE ( 2022, 7, 7 ) ;
#220 = DIRECTION ( 'NONE',  ( -0.000000000000000000, -0.000000000000000000, -1.000000000000000000 ) ) ;
#221 = DESIGN_CONTEXT ( 'detailed design', #72, 'design' ) ;
#222 = ORIENTED_EDGE ( 'NONE', *, *, #166, .F. ) ;
#223 = DIRECTION ( 'NONE',  ( -1.000000000000000000, 0.000000000000000000, 0.000000000000000000 ) ) ;
#224 = APPROVAL ( #116, 'NEURÈENÝ' ) ;
#225 = CARTESIAN_POINT ( 'NONE',  ( 1.100000000000000089, 1.347111479062088503E-16, 2.000000000000000000 ) ) ;
#226 = CARTESIAN_POINT ( 'NONE',  ( -2.000000000000000000, 0.000000000000000000, 0.000000000000000000 ) ) ;
#227 = EDGE_CURVE ( 'NONE', #144, #85, #234, .T. ) ;
#228 = CARTESIAN_POINT ( 'NONE',  ( 0.000000000000000000, 0.000000000000000000, 0.000000000000000000 ) ) ;
#229 = LOCAL_TIME ( 19, 59, 40.00000000000000000, #57 ) ;
#230 = CARTESIAN_POINT ( 'NONE',  ( 0.000000000000000000, 0.000000000000000000, 252.0000000000000000 ) ) ;
#231 = AXIS2_PLACEMENT_3D ( 'NONE', #185, #160, #202 ) ;
#232 = ADVANCED_FACE ( 'NONE', ( #255 ), #119, .F. ) ;
#233 = PERSON_AND_ORGANIZATION_ROLE ( 'creator' ) ;
#234 = LINE ( 'NONE', #236, #215 ) ;
#235 = SECURITY_CLASSIFICATION_LEVEL ( 'unclassified' ) ;
#236 = CARTESIAN_POINT ( 'NONE',  ( 1.100000000000000089, 1.347111479062088503E-16, 252.0000000000000000 ) ) ;
#237 = ORIENTED_EDGE ( 'NONE', *, *, #252, .F. ) ;
#238 = DIRECTION ( 'NONE',  ( -0.000000000000000000, -0.000000000000000000, -1.000000000000000000 ) ) ;
#239 = DIRECTION ( 'NONE',  ( 1.000000000000000000, 0.000000000000000000, 0.000000000000000000 ) ) ;
#240 = MANIFOLD_SOLID_BREP ( 'Pøidat vysunutím3', #99 ) ;
#241 = APPROVAL_DATE_TIME ( #84, #88 ) ;
#242 = DIRECTION ( 'NONE',  ( 0.000000000000000000, 0.000000000000000000, 1.000000000000000000 ) ) ;
#243 = FACE_OUTER_BOUND ( 'NONE', #108, .T. ) ;
#244 = EDGE_CURVE ( 'NONE', #85, #217, #211, .T. ) ;
#245 = DIRECTION ( 'NONE',  ( -1.000000000000000000, 0.000000000000000000, 0.000000000000000000 ) ) ;
#246 = DIRECTION ( 'NONE',  ( 1.000000000000000000, 0.000000000000000000, 0.000000000000000000 ) ) ;
#247 = CIRCLE ( 'NONE', #138, 2.000000000000000000 ) ;
#248 = DIRECTION ( 'NONE',  ( 0.000000000000000000, 0.000000000000000000, 1.000000000000000000 ) ) ;
#249 = ADVANCED_BREP_SHAPE_REPRESENTATION ( '78bd', ( #240, #156 ), #133 ) ;
#250 = CC_DESIGN_DATE_AND_TIME_ASSIGNMENT ( #97, #213, ( #100 ) ) ;
#251 = PERSON_AND_ORGANIZATION_ROLE ( 'design_supplier' ) ;
#252 = EDGE_CURVE ( 'NONE', #168, #148, #44, .T. ) ;
#253 = APPROVAL_DATE_TIME ( #75, #224 ) ;
#254 = CALENDAR_DATE ( 2022, 7, 7 ) ;
#255 = FACE_OUTER_BOUND ( 'NONE', #218, .T. ) ;
ENDSEC;
END-ISO-10303-21;
