ISO-10303-21;
HEADER;
FILE_DESCRIPTION (( 'STEP AP203' ),
    '1' );
FILE_NAME ('bf46.STEP',
    '2022-07-07T17:13:54',
    ( '' ),
    ( '' ),
    'SwSTEP 2.0',
    'SolidWorks 2019',
    '' );
FILE_SCHEMA (( 'CONFIG_CONTROL_DESIGN' ));
ENDSEC;

DATA;
#1 = PERSON_AND_ORGANIZATION_ROLE ( 'design_supplier' ) ;
#2 = AXIS2_PLACEMENT_3D ( 'NONE', #230, #175, #38 ) ;
#3 = DATE_TIME_ROLE ( 'classification_date' ) ;
#4 = APPROVAL ( #228, 'NEURÈENÝ' ) ;
#5 = CC_DESIGN_APPROVAL ( #31, ( #47 ) ) ;
#6 = ADVANCED_FACE ( 'NONE', ( #167, #169 ), #12, .T. ) ;
#7 = DATE_AND_TIME ( #8, #118 ) ;
#8 = CALENDAR_DATE ( 2022, 7, 7 ) ;
#9 = EDGE_LOOP ( 'NONE', ( #247, #74, #188, #250 ) ) ;
#10 = AXIS2_PLACEMENT_3D ( 'NONE', #198, #133, #130 ) ;
#11 = PERSON_AND_ORGANIZATION_ROLE ( 'design_owner' ) ;
#12 = PLANE ( 'NONE',  #139 ) ;
#13 = ADVANCED_FACE ( 'NONE', ( #92 ), #215, .T. ) ;
#14 = CARTESIAN_POINT ( 'NONE',  ( 7.000000000000000000, 8.572527594031473190E-16, 167.0000000000000000 ) ) ;
#15 =( NAMED_UNIT ( * ) PLANE_ANGLE_UNIT ( ) SI_UNIT ( $, .RADIAN. ) );
#16 = DIRECTION ( 'NONE',  ( -1.000000000000000000, 0.000000000000000000, 0.000000000000000000 ) ) ;
#17 = VERTEX_POINT ( 'NONE', #50 ) ;
#18 = CIRCLE ( 'NONE', #82, 11.00000000000000000 ) ;
#19 = CARTESIAN_POINT ( 'NONE',  ( 7.000000000000000000, 8.572527594031473190E-16, 167.0000000000000000 ) ) ;
#20 = CARTESIAN_POINT ( 'NONE',  ( 0.000000000000000000, 0.000000000000000000, 7.000000000000000000 ) ) ;
#21 = APPROVAL_ROLE ( '' ) ;
#22 = EDGE_CURVE ( 'NONE', #17, #152, #30, .T. ) ;
#23 = CALENDAR_DATE ( 2022, 7, 7 ) ;
#24 = EDGE_CURVE ( 'NONE', #132, #106, #147, .T. ) ;
#25 =( GEOMETRIC_REPRESENTATION_CONTEXT ( 3 ) GLOBAL_UNCERTAINTY_ASSIGNED_CONTEXT ( ( #49 ) ) GLOBAL_UNIT_ASSIGNED_CONTEXT ( ( #123, #15, #206 ) ) REPRESENTATION_CONTEXT ( 'NONE', 'WORKASPACE' ) );
#26 = DIRECTION ( 'NONE',  ( 1.000000000000000000, 0.000000000000000000, 0.000000000000000000 ) ) ;
#27 = APPROVAL_PERSON_ORGANIZATION ( #144, #4, #91 ) ;
#28 = VECTOR ( 'NONE', #97, 1000.000000000000000 ) ;
#29 = PERSON_AND_ORGANIZATION ( #104, #77 ) ;
#30 = LINE ( 'NONE', #212, #28 ) ;
#31 = APPROVAL ( #103, 'NEURÈENÝ' ) ;
#32 = EDGE_LOOP ( 'NONE', ( #52, #71 ) ) ;
#33 = CARTESIAN_POINT ( 'NONE',  ( 0.000000000000000000, 0.000000000000000000, 167.0000000000000000 ) ) ;
#34 = CARTESIAN_POINT ( 'NONE',  ( 0.000000000000000000, 0.000000000000000000, 0.000000000000000000 ) ) ;
#35 = ORIENTED_EDGE ( 'NONE', *, *, #24, .F. ) ;
#36 = DIRECTION ( 'NONE',  ( 1.000000000000000000, 0.000000000000000000, 0.000000000000000000 ) ) ;
#37 = VERTEX_POINT ( 'NONE', #19 ) ;
#38 = DIRECTION ( 'NONE',  ( 1.000000000000000000, 0.000000000000000000, 0.000000000000000000 ) ) ;
#39 = DIRECTION ( 'NONE',  ( -1.000000000000000000, 0.000000000000000000, 0.000000000000000000 ) ) ;
#40 = PERSON_AND_ORGANIZATION_ROLE ( 'creator' ) ;
#41 = DIRECTION ( 'NONE',  ( -0.000000000000000000, -0.000000000000000000, -1.000000000000000000 ) ) ;
#42 = PERSON_AND_ORGANIZATION ( #104, #77 ) ;
#43 = CIRCLE ( 'NONE', #182, 7.000000000000000000 ) ;
#44 = LOCAL_TIME ( 19, 13, 54.00000000000000000, #224 ) ;
#45 = PLANE ( 'NONE',  #181 ) ;
#46 = PRODUCT_DEFINITION_SHAPE ( 'NONE', 'NONE',  #165 ) ;
#47 = SECURITY_CLASSIFICATION ( '', '', #220 ) ;
#48 = DATE_AND_TIME ( #141, #44 ) ;
#49 = UNCERTAINTY_MEASURE_WITH_UNIT (LENGTH_MEASURE( 1.000000000000000082E-05 ), #123, 'distance_accuracy_value', 'NONE');
#50 = CARTESIAN_POINT ( 'NONE',  ( 11.00000000000000000, 1.347111479062088405E-15, 7.000000000000000000 ) ) ;
#51 = EDGE_CURVE ( 'NONE', #94, #106, #168, .T. ) ;
#52 = ORIENTED_EDGE ( 'NONE', *, *, #171, .F. ) ;
#53 = CARTESIAN_POINT ( 'NONE',  ( -7.000000000000000000, 0.000000000000000000, 167.0000000000000000 ) ) ;
#54 = DIRECTION ( 'NONE',  ( 1.000000000000000000, 0.000000000000000000, 0.000000000000000000 ) ) ;
#55 = ORIENTED_EDGE ( 'NONE', *, *, #51, .T. ) ;
#56 = PRODUCT ( 'bf46', 'bf46', '', ( #242 ) ) ;
#57 = CARTESIAN_POINT ( 'NONE',  ( -11.00000000000000000, 0.000000000000000000, 0.000000000000000000 ) ) ;
#58 = EDGE_LOOP ( 'NONE', ( #125, #252, #108, #210 ) ) ;
#59 = CYLINDRICAL_SURFACE ( 'NONE', #107, 11.00000000000000000 ) ;
#60 = DIRECTION ( 'NONE',  ( -0.000000000000000000, -0.000000000000000000, -1.000000000000000000 ) ) ;
#61 = FACE_OUTER_BOUND ( 'NONE', #9, .T. ) ;
#62 = CIRCLE ( 'NONE', #127, 7.000000000000000000 ) ;
#63 = DIRECTION ( 'NONE',  ( -0.000000000000000000, -0.000000000000000000, -1.000000000000000000 ) ) ;
#64 = CC_DESIGN_APPROVAL ( #231, ( #174 ) ) ;
#65 = EDGE_CURVE ( 'NONE', #37, #94, #43, .T. ) ;
#66 = PERSON_AND_ORGANIZATION_ROLE ( 'creator' ) ;
#67 = DIRECTION ( 'NONE',  ( 1.000000000000000000, 0.000000000000000000, -0.000000000000000000 ) ) ;
#68 = DATE_TIME_ROLE ( 'creation_date' ) ;
#69 = EDGE_LOOP ( 'NONE', ( #149, #78 ) ) ;
#70 = PERSON_AND_ORGANIZATION ( #104, #77 ) ;
#71 = ORIENTED_EDGE ( 'NONE', *, *, #221, .F. ) ;
#72 = DIRECTION ( 'NONE',  ( -1.000000000000000000, 0.000000000000000000, 0.000000000000000000 ) ) ;
#73 = AXIS2_PLACEMENT_3D ( 'NONE', #76, #151, #79 ) ;
#74 = ORIENTED_EDGE ( 'NONE', *, *, #119, .T. ) ;
#75 = CIRCLE ( 'NONE', #73, 7.000000000000000000 ) ;
#76 = CARTESIAN_POINT ( 'NONE',  ( 0.000000000000000000, 0.000000000000000000, 167.0000000000000000 ) ) ;
#77 = ORGANIZATION ( 'NEURÈENÝ', 'NEURÈENÝ', '' ) ;
#78 = ORIENTED_EDGE ( 'NONE', *, *, #65, .T. ) ;
#79 = DIRECTION ( 'NONE',  ( 1.000000000000000000, 0.000000000000000000, 0.000000000000000000 ) ) ;
#80 = APPROVAL_DATE_TIME ( #238, #31 ) ;
#81 = DIRECTION ( 'NONE',  ( 1.000000000000000000, 0.000000000000000000, 0.000000000000000000 ) ) ;
#82 = AXIS2_PLACEMENT_3D ( 'NONE', #126, #95, #81 ) ;
#83 = CC_DESIGN_PERSON_AND_ORGANIZATION_ASSIGNMENT ( #179, #136, ( #47 ) ) ;
#84 = COORDINATED_UNIVERSAL_TIME_OFFSET ( 1, 0, .AHEAD. ) ;
#85 = VECTOR ( 'NONE', #93, 1000.000000000000000 ) ;
#86 = APPROVAL_STATUS ( 'not_yet_approved' ) ;
#87 = CARTESIAN_POINT ( 'NONE',  ( 0.000000000000000000, 0.000000000000000000, 0.000000000000000000 ) ) ;
#88 = DIRECTION ( 'NONE',  ( 1.000000000000000000, 0.000000000000000000, -0.000000000000000000 ) ) ;
#89 = AXIS2_PLACEMENT_3D ( 'NONE', #33, #170, #217 ) ;
#90 = ORIENTED_EDGE ( 'NONE', *, *, #22, .T. ) ;
#91 = APPROVAL_ROLE ( '' ) ;
#92 = FACE_OUTER_BOUND ( 'NONE', #96, .T. ) ;
#93 = DIRECTION ( 'NONE',  ( -0.000000000000000000, -0.000000000000000000, -1.000000000000000000 ) ) ;
#94 = VERTEX_POINT ( 'NONE', #53 ) ;
#95 = DIRECTION ( 'NONE',  ( 0.000000000000000000, 0.000000000000000000, 1.000000000000000000 ) ) ;
#96 = EDGE_LOOP ( 'NONE', ( #245, #129, #55, #190 ) ) ;
#97 = DIRECTION ( 'NONE',  ( -0.000000000000000000, -0.000000000000000000, -1.000000000000000000 ) ) ;
#98 = AXIS2_PLACEMENT_3D ( 'NONE', #87, #246, #54 ) ;
#99 = AXIS2_PLACEMENT_3D ( 'NONE', #205, #60, #39 ) ;
#100 = DIRECTION ( 'NONE',  ( -0.000000000000000000, -0.000000000000000000, -1.000000000000000000 ) ) ;
#101 = EDGE_CURVE ( 'NONE', #229, #193, #156, .T. ) ;
#102 = DATE_AND_TIME ( #161, #241 ) ;
#103 = APPROVAL_STATUS ( 'not_yet_approved' ) ;
#104 = PERSON ( 'NEURÈENÝ', 'NEURÈENÝ', 'NEURÈENÝ', ('NEURÈENÝ'), ('NEURÈENÝ'), ('NEURÈENÝ') ) ;
#105 = CC_DESIGN_PERSON_AND_ORGANIZATION_ASSIGNMENT ( #143, #11, ( #56 ) ) ;
#106 = VERTEX_POINT ( 'NONE', #135 ) ;
#107 = AXIS2_PLACEMENT_3D ( 'NONE', #251, #41, #72 ) ;
#108 = ORIENTED_EDGE ( 'NONE', *, *, #101, .T. ) ;
#109 = DIRECTION ( 'NONE',  ( -0.000000000000000000, -0.000000000000000000, -1.000000000000000000 ) ) ;
#110 = FACE_OUTER_BOUND ( 'NONE', #32, .T. ) ;
#111 = ORIENTED_EDGE ( 'NONE', *, *, #101, .F. ) ;
#112 = CARTESIAN_POINT ( 'NONE',  ( 7.000000000000000000, 8.572527594031473190E-16, 7.000000000000000000 ) ) ;
#113 = CARTESIAN_POINT ( 'NONE',  ( 0.000000000000000000, 0.000000000000000000, 7.000000000000000000 ) ) ;
#114 = PLANE ( 'NONE',  #142 ) ;
#115 = CC_DESIGN_SECURITY_CLASSIFICATION ( #47, ( #174 ) ) ;
#116 = DIRECTION ( 'NONE',  ( 0.000000000000000000, 0.000000000000000000, 1.000000000000000000 ) ) ;
#117 = DATE_AND_TIME ( #23, #137 ) ;
#118 = LOCAL_TIME ( 19, 13, 54.00000000000000000, #186 ) ;
#119 = EDGE_CURVE ( 'NONE', #37, #132, #196, .T. ) ;
#120 = CC_DESIGN_DATE_AND_TIME_ASSIGNMENT ( #117, #3, ( #47 ) ) ;
#121 = DIRECTION ( 'NONE',  ( 0.000000000000000000, 0.000000000000000000, 1.000000000000000000 ) ) ;
#122 = APPROVAL_PERSON_ORGANIZATION ( #42, #31, #21 ) ;
#123 =( LENGTH_UNIT ( ) NAMED_UNIT ( * ) SI_UNIT ( .MILLI., .METRE. ) );
#124 = DIRECTION ( 'NONE',  ( 0.000000000000000000, 0.000000000000000000, 1.000000000000000000 ) ) ;
#125 = ORIENTED_EDGE ( 'NONE', *, *, #22, .F. ) ;
#126 = CARTESIAN_POINT ( 'NONE',  ( 0.000000000000000000, 0.000000000000000000, 0.000000000000000000 ) ) ;
#127 = AXIS2_PLACEMENT_3D ( 'NONE', #20, #235, #36 ) ;
#128 = EDGE_CURVE ( 'NONE', #106, #132, #62, .T. ) ;
#129 = ORIENTED_EDGE ( 'NONE', *, *, #199, .F. ) ;
#130 = DIRECTION ( 'NONE',  ( 1.000000000000000000, 0.000000000000000000, 0.000000000000000000 ) ) ;
#131 = DIRECTION ( 'NONE',  ( 1.000000000000000000, 0.000000000000000000, 0.000000000000000000 ) ) ;
#132 = VERTEX_POINT ( 'NONE', #112 ) ;
#133 = DIRECTION ( 'NONE',  ( 0.000000000000000000, 0.000000000000000000, 1.000000000000000000 ) ) ;
#134 = APPROVAL_DATE_TIME ( #102, #231 ) ;
#135 = CARTESIAN_POINT ( 'NONE',  ( -7.000000000000000000, 0.000000000000000000, 7.000000000000000000 ) ) ;
#136 = PERSON_AND_ORGANIZATION_ROLE ( 'classification_officer' ) ;
#137 = LOCAL_TIME ( 19, 13, 54.00000000000000000, #84 ) ;
#138 = AXIS2_PLACEMENT_3D ( 'NONE', #192, #124, #26 ) ;
#139 = AXIS2_PLACEMENT_3D ( 'NONE', #113, #232, #213 ) ;
#140 = ADVANCED_FACE ( 'NONE', ( #248 ), #194, .T. ) ;
#141 = CALENDAR_DATE ( 2022, 7, 7 ) ;
#142 = AXIS2_PLACEMENT_3D ( 'NONE', #154, #163, #67 ) ;
#143 = PERSON_AND_ORGANIZATION ( #104, #77 ) ;
#144 = PERSON_AND_ORGANIZATION ( #104, #77 ) ;
#145 = EDGE_LOOP ( 'NONE', ( #234, #90, #146, #111 ) ) ;
#146 = ORIENTED_EDGE ( 'NONE', *, *, #221, .T. ) ;
#147 = CIRCLE ( 'NONE', #10, 7.000000000000000000 ) ;
#148 = CARTESIAN_POINT ( 'NONE',  ( -7.000000000000000000, 0.000000000000000000, 167.0000000000000000 ) ) ;
#149 = ORIENTED_EDGE ( 'NONE', *, *, #199, .T. ) ;
#150 = CIRCLE ( 'NONE', #138, 11.00000000000000000 ) ;
#151 = DIRECTION ( 'NONE',  ( 0.000000000000000000, 0.000000000000000000, 1.000000000000000000 ) ) ;
#152 = VERTEX_POINT ( 'NONE', #218 ) ;
#153 = EDGE_CURVE ( 'NONE', #17, #229, #189, .T. ) ;
#154 = CARTESIAN_POINT ( 'NONE',  ( 0.000000000000000000, 0.000000000000000000, 167.0000000000000000 ) ) ;
#155 = SHAPE_DEFINITION_REPRESENTATION ( #46, #176 ) ;
#156 = LINE ( 'NONE', #214, #203 ) ;
#157 = PERSON_AND_ORGANIZATION ( #104, #77 ) ;
#158 = PERSON_AND_ORGANIZATION ( #104, #77 ) ;
#159 = APPROVAL_PERSON_ORGANIZATION ( #70, #231, #225 ) ;
#160 = CC_DESIGN_PERSON_AND_ORGANIZATION_ASSIGNMENT ( #158, #1, ( #174 ) ) ;
#161 = CALENDAR_DATE ( 2022, 7, 7 ) ;
#162 = APPLICATION_PROTOCOL_DEFINITION ( 'international standard', 'config_control_design', 1994, #184 ) ;
#163 = DIRECTION ( 'NONE',  ( 0.000000000000000000, 0.000000000000000000, 1.000000000000000000 ) ) ;
#164 = EDGE_LOOP ( 'NONE', ( #195, #207 ) ) ;
#165 = PRODUCT_DEFINITION ( 'NEZNÁMÝ', '', #174, #202 ) ;
#166 = APPROVAL_DATE_TIME ( #48, #4 ) ;
#167 = FACE_BOUND ( 'NONE', #226, .T. ) ;
#168 = LINE ( 'NONE', #148, #85 ) ;
#169 = FACE_OUTER_BOUND ( 'NONE', #164, .T. ) ;
#170 = DIRECTION ( 'NONE',  ( -0.000000000000000000, -0.000000000000000000, -1.000000000000000000 ) ) ;
#171 = EDGE_CURVE ( 'NONE', #193, #152, #18, .T. ) ;
#172 = ORIENTED_EDGE ( 'NONE', *, *, #128, .F. ) ;
#173 = LOCAL_TIME ( 19, 13, 54.00000000000000000, #180 ) ;
#174 = PRODUCT_DEFINITION_FORMATION_WITH_SPECIFIED_SOURCE ( 'LIBOVOLNÝ', '', #56, .NOT_KNOWN. ) ;
#175 = DIRECTION ( 'NONE',  ( 0.000000000000000000, 0.000000000000000000, 1.000000000000000000 ) ) ;
#176 = ADVANCED_BREP_SHAPE_REPRESENTATION ( 'bf46', ( #216, #98 ), #25 ) ;
#177 = DIRECTION ( 'NONE',  ( 0.000000000000000000, 0.000000000000000000, 1.000000000000000000 ) ) ;
#178 = ADVANCED_FACE ( 'NONE', ( #61 ), #208, .T. ) ;
#179 = PERSON_AND_ORGANIZATION ( #104, #77 ) ;
#180 = COORDINATED_UNIVERSAL_TIME_OFFSET ( 1, 0, .AHEAD. ) ;
#181 = AXIS2_PLACEMENT_3D ( 'NONE', #34, #121, #88 ) ;
#182 = AXIS2_PLACEMENT_3D ( 'NONE', #227, #116, #255 ) ;
#183 = APPLICATION_CONTEXT ( 'configuration controlled 3d designs of mechanical parts and assemblies' ) ;
#184 = APPLICATION_CONTEXT ( 'configuration controlled 3d designs of mechanical parts and assemblies' ) ;
#185 = ADVANCED_FACE ( 'NONE', ( #254 ), #59, .T. ) ;
#186 = COORDINATED_UNIVERSAL_TIME_OFFSET ( 1, 0, .AHEAD. ) ;
#187 = EDGE_CURVE ( 'NONE', #229, #17, #237, .T. ) ;
#188 = ORIENTED_EDGE ( 'NONE', *, *, #24, .T. ) ;
#189 = CIRCLE ( 'NONE', #243, 11.00000000000000000 ) ;
#190 = ORIENTED_EDGE ( 'NONE', *, *, #128, .T. ) ;
#191 = CARTESIAN_POINT ( 'NONE',  ( 0.000000000000000000, 0.000000000000000000, 7.000000000000000000 ) ) ;
#192 = CARTESIAN_POINT ( 'NONE',  ( 0.000000000000000000, 0.000000000000000000, 0.000000000000000000 ) ) ;
#193 = VERTEX_POINT ( 'NONE', #57 ) ;
#194 = CYLINDRICAL_SURFACE ( 'NONE', #222, 11.00000000000000000 ) ;
#195 = ORIENTED_EDGE ( 'NONE', *, *, #187, .T. ) ;
#196 = LINE ( 'NONE', #14, #240 ) ;
#197 = CC_DESIGN_APPROVAL ( #4, ( #165 ) ) ;
#198 = CARTESIAN_POINT ( 'NONE',  ( 0.000000000000000000, 0.000000000000000000, 7.000000000000000000 ) ) ;
#199 = EDGE_CURVE ( 'NONE', #94, #37, #75, .T. ) ;
#200 = CALENDAR_DATE ( 2022, 7, 7 ) ;
#201 = CC_DESIGN_DATE_AND_TIME_ASSIGNMENT ( #7, #68, ( #165 ) ) ;
#202 = DESIGN_CONTEXT ( 'detailed design', #183, 'design' ) ;
#203 = VECTOR ( 'NONE', #100, 1000.000000000000000 ) ;
#204 = ADVANCED_FACE ( 'NONE', ( #233 ), #114, .T. ) ;
#205 = CARTESIAN_POINT ( 'NONE',  ( 0.000000000000000000, 0.000000000000000000, 167.0000000000000000 ) ) ;
#206 =( NAMED_UNIT ( * ) SI_UNIT ( $, .STERADIAN. ) SOLID_ANGLE_UNIT ( ) );
#207 = ORIENTED_EDGE ( 'NONE', *, *, #153, .T. ) ;
#208 = CYLINDRICAL_SURFACE ( 'NONE', #89, 7.000000000000000000 ) ;
#209 = COORDINATED_UNIVERSAL_TIME_OFFSET ( 1, 0, .AHEAD. ) ;
#210 = ORIENTED_EDGE ( 'NONE', *, *, #171, .T. ) ;
#211 = CC_DESIGN_PERSON_AND_ORGANIZATION_ASSIGNMENT ( #157, #40, ( #174 ) ) ;
#212 = CARTESIAN_POINT ( 'NONE',  ( 11.00000000000000000, 1.347111479062088405E-15, 7.000000000000000000 ) ) ;
#213 = DIRECTION ( 'NONE',  ( 1.000000000000000000, 0.000000000000000000, -0.000000000000000000 ) ) ;
#214 = CARTESIAN_POINT ( 'NONE',  ( -11.00000000000000000, 0.000000000000000000, 7.000000000000000000 ) ) ;
#215 = CYLINDRICAL_SURFACE ( 'NONE', #99, 7.000000000000000000 ) ;
#216 = MANIFOLD_SOLID_BREP ( 'Pøidat vysunutím3', #253 ) ;
#217 = DIRECTION ( 'NONE',  ( -1.000000000000000000, 0.000000000000000000, 0.000000000000000000 ) ) ;
#218 = CARTESIAN_POINT ( 'NONE',  ( 11.00000000000000000, 1.347111479062088405E-15, 0.000000000000000000 ) ) ;
#219 = ADVANCED_FACE ( 'NONE', ( #110 ), #45, .F. ) ;
#220 = SECURITY_CLASSIFICATION_LEVEL ( 'unclassified' ) ;
#221 = EDGE_CURVE ( 'NONE', #152, #193, #150, .T. ) ;
#222 = AXIS2_PLACEMENT_3D ( 'NONE', #236, #63, #16 ) ;
#223 = CARTESIAN_POINT ( 'NONE',  ( -11.00000000000000000, 0.000000000000000000, 7.000000000000000000 ) ) ;
#224 = COORDINATED_UNIVERSAL_TIME_OFFSET ( 1, 0, .AHEAD. ) ;
#225 = APPROVAL_ROLE ( '' ) ;
#226 = EDGE_LOOP ( 'NONE', ( #172, #35 ) ) ;
#227 = CARTESIAN_POINT ( 'NONE',  ( 0.000000000000000000, 0.000000000000000000, 167.0000000000000000 ) ) ;
#228 = APPROVAL_STATUS ( 'not_yet_approved' ) ;
#229 = VERTEX_POINT ( 'NONE', #223 ) ;
#230 = CARTESIAN_POINT ( 'NONE',  ( 0.000000000000000000, 0.000000000000000000, 7.000000000000000000 ) ) ;
#231 = APPROVAL ( #86, 'NEURÈENÝ' ) ;
#232 = DIRECTION ( 'NONE',  ( 0.000000000000000000, 0.000000000000000000, 1.000000000000000000 ) ) ;
#233 = FACE_OUTER_BOUND ( 'NONE', #69, .T. ) ;
#234 = ORIENTED_EDGE ( 'NONE', *, *, #153, .F. ) ;
#235 = DIRECTION ( 'NONE',  ( 0.000000000000000000, 0.000000000000000000, 1.000000000000000000 ) ) ;
#236 = CARTESIAN_POINT ( 'NONE',  ( 0.000000000000000000, 0.000000000000000000, 7.000000000000000000 ) ) ;
#237 = CIRCLE ( 'NONE', #2, 11.00000000000000000 ) ;
#238 = DATE_AND_TIME ( #200, #173 ) ;
#239 = PRODUCT_RELATED_PRODUCT_CATEGORY ( 'detail', '', ( #56 ) ) ;
#240 = VECTOR ( 'NONE', #109, 1000.000000000000000 ) ;
#241 = LOCAL_TIME ( 19, 13, 54.00000000000000000, #209 ) ;
#242 = MECHANICAL_CONTEXT ( 'NONE', #184, 'mechanical' ) ;
#243 = AXIS2_PLACEMENT_3D ( 'NONE', #191, #177, #131 ) ;
#244 = APPLICATION_PROTOCOL_DEFINITION ( 'international standard', 'config_control_design', 1994, #183 ) ;
#245 = ORIENTED_EDGE ( 'NONE', *, *, #119, .F. ) ;
#246 = DIRECTION ( 'NONE',  ( 0.000000000000000000, 0.000000000000000000, 1.000000000000000000 ) ) ;
#247 = ORIENTED_EDGE ( 'NONE', *, *, #65, .F. ) ;
#248 = FACE_OUTER_BOUND ( 'NONE', #58, .T. ) ;
#249 = CC_DESIGN_PERSON_AND_ORGANIZATION_ASSIGNMENT ( #29, #66, ( #165 ) ) ;
#250 = ORIENTED_EDGE ( 'NONE', *, *, #51, .F. ) ;
#251 = CARTESIAN_POINT ( 'NONE',  ( 0.000000000000000000, 0.000000000000000000, 7.000000000000000000 ) ) ;
#252 = ORIENTED_EDGE ( 'NONE', *, *, #187, .F. ) ;
#253 = CLOSED_SHELL ( 'NONE', ( #178, #185, #140, #6, #219, #13, #204 ) ) ;
#254 = FACE_OUTER_BOUND ( 'NONE', #145, .T. ) ;
#255 = DIRECTION ( 'NONE',  ( 1.000000000000000000, 0.000000000000000000, 0.000000000000000000 ) ) ;
ENDSEC;
END-ISO-10303-21;
