ISO-10303-21;
HEADER;
FILE_DESCRIPTION (( 'STEP AP203' ),
    '1' );
FILE_NAME ('9f16.STEP',
    '2022-07-07T17:05:59',
    ( '' ),
    ( '' ),
    'SwSTEP 2.0',
    'SolidWorks 2019',
    '' );
FILE_SCHEMA (( 'CONFIG_CONTROL_DESIGN' ));
ENDSEC;

DATA;
#1 = PRODUCT_DEFINITION_SHAPE ( 'NONE', 'NONE',  #227 ) ;
#2 = DIRECTION ( 'NONE',  ( 0.000000000000000000, 0.000000000000000000, 1.000000000000000000 ) ) ;
#3 = DIRECTION ( 'NONE',  ( 1.000000000000000000, 0.000000000000000000, 0.000000000000000000 ) ) ;
#4 = EDGE_CURVE ( 'NONE', #146, #236, #84, .T. ) ;
#5 = LINE ( 'NONE', #29, #25 ) ;
#6 = VECTOR ( 'NONE', #149, 1000.000000000000000 ) ;
#7 = ORIENTED_EDGE ( 'NONE', *, *, #121, .T. ) ;
#8 = APPROVAL_PERSON_ORGANIZATION ( #12, #150, #69 ) ;
#9 = SHAPE_DEFINITION_REPRESENTATION ( #1, #101 ) ;
#10 = PERSON_AND_ORGANIZATION ( #92, #235 ) ;
#11 = AXIS2_PLACEMENT_3D ( 'NONE', #181, #239, #240 ) ;
#12 = PERSON_AND_ORGANIZATION ( #92, #235 ) ;
#13 = APPROVAL_PERSON_ORGANIZATION ( #192, #130, #205 ) ;
#14 = ADVANCED_FACE ( 'NONE', ( #128 ), #105, .T. ) ;
#15 = CARTESIAN_POINT ( 'NONE',  ( 0.000000000000000000, 0.000000000000000000, 207.0000000000000284 ) ) ;
#16 = CC_DESIGN_SECURITY_CLASSIFICATION ( #209, ( #94 ) ) ;
#17 = DIRECTION ( 'NONE',  ( 0.000000000000000000, 0.000000000000000000, 1.000000000000000000 ) ) ;
#18 = EDGE_LOOP ( 'NONE', ( #161, #122 ) ) ;
#19 = CARTESIAN_POINT ( 'NONE',  ( 8.500000000000000000, 1.040949779275250140E-15, 7.000000000000000000 ) ) ;
#20 = LOCAL_TIME ( 19, 5, 59.00000000000000000, #229 ) ;
#21 = CC_DESIGN_DATE_AND_TIME_ASSIGNMENT ( #52, #207, ( #227 ) ) ;
#22 = PRODUCT ( '9f16', '9f16', '', ( #62 ) ) ;
#23 = EDGE_CURVE ( 'NONE', #97, #37, #67, .T. ) ;
#24 = FACE_BOUND ( 'NONE', #224, .T. ) ;
#25 = VECTOR ( 'NONE', #89, 1000.000000000000000 ) ;
#26 = CARTESIAN_POINT ( 'NONE',  ( 0.000000000000000000, 0.000000000000000000, 7.000000000000000000 ) ) ;
#27 = CIRCLE ( 'NONE', #174, 8.500000000000000000 ) ;
#28 = ORIENTED_EDGE ( 'NONE', *, *, #40, .T. ) ;
#29 = CARTESIAN_POINT ( 'NONE',  ( -11.00000000000000000, 0.000000000000000000, 7.000000000000000000 ) ) ;
#30 = CIRCLE ( 'NONE', #204, 11.00000000000000000 ) ;
#31 = PERSON_AND_ORGANIZATION_ROLE ( 'creator' ) ;
#32 = APPROVAL_PERSON_ORGANIZATION ( #75, #91, #153 ) ;
#33 = COORDINATED_UNIVERSAL_TIME_OFFSET ( 1, 0, .AHEAD. ) ;
#34 = SECURITY_CLASSIFICATION_LEVEL ( 'unclassified' ) ;
#35 = COORDINATED_UNIVERSAL_TIME_OFFSET ( 1, 0, .AHEAD. ) ;
#36 = CARTESIAN_POINT ( 'NONE',  ( 8.500000000000000000, 1.040949779275250140E-15, 207.0000000000000284 ) ) ;
#37 = VERTEX_POINT ( 'NONE', #222 ) ;
#38 = DIRECTION ( 'NONE',  ( 0.000000000000000000, 0.000000000000000000, 1.000000000000000000 ) ) ;
#39 = EDGE_LOOP ( 'NONE', ( #7, #142 ) ) ;
#40 = EDGE_CURVE ( 'NONE', #97, #234, #107, .T. ) ;
#41 = APPLICATION_PROTOCOL_DEFINITION ( 'international standard', 'config_control_design', 1994, #231 ) ;
#42 = MANIFOLD_SOLID_BREP ( 'Pøidat vysunutím3', #72 ) ;
#43 = ORIENTED_EDGE ( 'NONE', *, *, #158, .T. ) ;
#44 = CARTESIAN_POINT ( 'NONE',  ( 0.000000000000000000, 0.000000000000000000, 7.000000000000000000 ) ) ;
#45 = CARTESIAN_POINT ( 'NONE',  ( 0.000000000000000000, 0.000000000000000000, 207.0000000000000284 ) ) ;
#46 = EDGE_CURVE ( 'NONE', #65, #37, #30, .T. ) ;
#47 = CARTESIAN_POINT ( 'NONE',  ( 0.000000000000000000, 0.000000000000000000, 0.000000000000000000 ) ) ;
#48 = AXIS2_PLACEMENT_3D ( 'NONE', #26, #38, #165 ) ;
#49 = EDGE_LOOP ( 'NONE', ( #119, #100, #164, #138 ) ) ;
#50 = DIRECTION ( 'NONE',  ( -0.000000000000000000, -0.000000000000000000, -1.000000000000000000 ) ) ;
#51 = COORDINATED_UNIVERSAL_TIME_OFFSET ( 1, 0, .AHEAD. ) ;
#52 = DATE_AND_TIME ( #110, #58 ) ;
#53 = CIRCLE ( 'NONE', #228, 11.00000000000000000 ) ;
#54 = PERSON_AND_ORGANIZATION ( #92, #235 ) ;
#55 = CC_DESIGN_PERSON_AND_ORGANIZATION_ASSIGNMENT ( #156, #71, ( #94 ) ) ;
#56 = PERSON_AND_ORGANIZATION ( #92, #235 ) ;
#57 = DIRECTION ( 'NONE',  ( 1.000000000000000000, 0.000000000000000000, -0.000000000000000000 ) ) ;
#58 = LOCAL_TIME ( 19, 5, 59.00000000000000000, #35 ) ;
#59 = ORIENTED_EDGE ( 'NONE', *, *, #70, .F. ) ;
#60 = ORIENTED_EDGE ( 'NONE', *, *, #23, .F. ) ;
#61 = EDGE_CURVE ( 'NONE', #177, #236, #80, .T. ) ;
#62 = MECHANICAL_CONTEXT ( 'NONE', #231, 'mechanical' ) ;
#63 = AXIS2_PLACEMENT_3D ( 'NONE', #77, #252, #57 ) ;
#64 = DIRECTION ( 'NONE',  ( 0.000000000000000000, 0.000000000000000000, 1.000000000000000000 ) ) ;
#65 = VERTEX_POINT ( 'NONE', #241 ) ;
#66 = PLANE ( 'NONE',  #163 ) ;
#67 = LINE ( 'NONE', #203, #6 ) ;
#68 = AXIS2_PLACEMENT_3D ( 'NONE', #193, #176, #198 ) ;
#69 = APPROVAL_ROLE ( '' ) ;
#70 = EDGE_CURVE ( 'NONE', #146, #144, #103, .T. ) ;
#71 = PERSON_AND_ORGANIZATION_ROLE ( 'design_supplier' ) ;
#72 = CLOSED_SHELL ( 'NONE', ( #78, #171, #14, #113, #201, #166, #99 ) ) ;
#73 = APPROVAL_STATUS ( 'not_yet_approved' ) ;
#74 = AXIS2_PLACEMENT_3D ( 'NONE', #143, #145, #250 ) ;
#75 = PERSON_AND_ORGANIZATION ( #92, #235 ) ;
#76 = EDGE_CURVE ( 'NONE', #234, #65, #5, .T. ) ;
#77 = CARTESIAN_POINT ( 'NONE',  ( 0.000000000000000000, 0.000000000000000000, 0.000000000000000000 ) ) ;
#78 = ADVANCED_FACE ( 'NONE', ( #172 ), #202, .T. ) ;
#79 = DIRECTION ( 'NONE',  ( 1.000000000000000000, 0.000000000000000000, 0.000000000000000000 ) ) ;
#80 = CIRCLE ( 'NONE', #167, 8.500000000000000000 ) ;
#81 = DIRECTION ( 'NONE',  ( 1.000000000000000000, 0.000000000000000000, 0.000000000000000000 ) ) ;
#82 = CC_DESIGN_APPROVAL ( #91, ( #227 ) ) ;
#83 = EDGE_LOOP ( 'NONE', ( #60, #255, #90, #216 ) ) ;
#84 = LINE ( 'NONE', #182, #223 ) ;
#85 = AXIS2_PLACEMENT_3D ( 'NONE', #15, #233, #180 ) ;
#86 = AXIS2_PLACEMENT_3D ( 'NONE', #44, #140, #124 ) ;
#87 = DIRECTION ( 'NONE',  ( -0.000000000000000000, -0.000000000000000000, -1.000000000000000000 ) ) ;
#88 = DIRECTION ( 'NONE',  ( 0.000000000000000000, 0.000000000000000000, 1.000000000000000000 ) ) ;
#89 = DIRECTION ( 'NONE',  ( -0.000000000000000000, -0.000000000000000000, -1.000000000000000000 ) ) ;
#90 = ORIENTED_EDGE ( 'NONE', *, *, #76, .T. ) ;
#91 = APPROVAL ( #73, 'NEURÈENÝ' ) ;
#92 = PERSON ( 'NEURÈENÝ', 'NEURÈENÝ', 'NEURÈENÝ', ('NEURÈENÝ'), ('NEURÈENÝ'), ('NEURÈENÝ') ) ;
#93 = DATE_AND_TIME ( #155, #141 ) ;
#94 = PRODUCT_DEFINITION_FORMATION_WITH_SPECIFIED_SOURCE ( 'LIBOVOLNÝ', '', #22, .NOT_KNOWN. ) ;
#95 = EDGE_CURVE ( 'NONE', #144, #177, #148, .T. ) ;
#96 = DIRECTION ( 'NONE',  ( 0.000000000000000000, 0.000000000000000000, 1.000000000000000000 ) ) ;
#97 = VERTEX_POINT ( 'NONE', #185 ) ;
#98 = APPLICATION_CONTEXT ( 'configuration controlled 3d designs of mechanical parts and assemblies' ) ;
#99 = ADVANCED_FACE ( 'NONE', ( #134 ), #66, .T. ) ;
#100 = ORIENTED_EDGE ( 'NONE', *, *, #23, .T. ) ;
#101 = ADVANCED_BREP_SHAPE_REPRESENTATION ( '9f16', ( #42, #111 ), #159 ) ;
#102 = FACE_OUTER_BOUND ( 'NONE', #170, .T. ) ;
#103 = CIRCLE ( 'NONE', #139, 8.500000000000000000 ) ;
#104 = CARTESIAN_POINT ( 'NONE',  ( 0.000000000000000000, 0.000000000000000000, 7.000000000000000000 ) ) ;
#105 = CYLINDRICAL_SURFACE ( 'NONE', #115, 11.00000000000000000 ) ;
#106 = DIRECTION ( 'NONE',  ( 0.000000000000000000, 0.000000000000000000, 1.000000000000000000 ) ) ;
#107 = CIRCLE ( 'NONE', #147, 11.00000000000000000 ) ;
#108 = COORDINATED_UNIVERSAL_TIME_OFFSET ( 1, 0, .AHEAD. ) ;
#109 = DATE_TIME_ROLE ( 'classification_date' ) ;
#110 = CALENDAR_DATE ( 2022, 7, 7 ) ;
#111 = AXIS2_PLACEMENT_3D ( 'NONE', #212, #17, #237 ) ;
#112 = DESIGN_CONTEXT ( 'detailed design', #98, 'design' ) ;
#113 = ADVANCED_FACE ( 'NONE', ( #24, #102 ), #200, .T. ) ;
#114 =( NAMED_UNIT ( * ) SI_UNIT ( $, .STERADIAN. ) SOLID_ANGLE_UNIT ( ) );
#115 = AXIS2_PLACEMENT_3D ( 'NONE', #225, #50, #169 ) ;
#116 = ORIENTED_EDGE ( 'NONE', *, *, #158, .F. ) ;
#117 = CIRCLE ( 'NONE', #74, 11.00000000000000000 ) ;
#118 = CYLINDRICAL_SURFACE ( 'NONE', #86, 11.00000000000000000 ) ;
#119 = ORIENTED_EDGE ( 'NONE', *, *, #40, .F. ) ;
#120 = CYLINDRICAL_SURFACE ( 'NONE', #68, 8.500000000000000000 ) ;
#121 = EDGE_CURVE ( 'NONE', #144, #146, #190, .T. ) ;
#122 = ORIENTED_EDGE ( 'NONE', *, *, #133, .F. ) ;
#123 = EDGE_LOOP ( 'NONE', ( #249, #194, #232, #211 ) ) ;
#124 = DIRECTION ( 'NONE',  ( -1.000000000000000000, 0.000000000000000000, 0.000000000000000000 ) ) ;
#125 = CC_DESIGN_APPROVAL ( #130, ( #209 ) ) ;
#126 = CARTESIAN_POINT ( 'NONE',  ( -8.500000000000000000, 0.000000000000000000, 207.0000000000000284 ) ) ;
#127 = EDGE_CURVE ( 'NONE', #234, #97, #53, .T. ) ;
#128 = FACE_OUTER_BOUND ( 'NONE', #83, .T. ) ;
#129 = VECTOR ( 'NONE', #221, 1000.000000000000000 ) ;
#130 = APPROVAL ( #135, 'NEURÈENÝ' ) ;
#131 = LOCAL_TIME ( 19, 5, 59.00000000000000000, #51 ) ;
#132 = ORIENTED_EDGE ( 'NONE', *, *, #4, .T. ) ;
#133 = EDGE_CURVE ( 'NONE', #37, #65, #117, .T. ) ;
#134 = FACE_OUTER_BOUND ( 'NONE', #39, .T. ) ;
#135 = APPROVAL_STATUS ( 'not_yet_approved' ) ;
#136 = APPROVAL_DATE_TIME ( #226, #91 ) ;
#137 = PERSON_AND_ORGANIZATION_ROLE ( 'design_owner' ) ;
#138 = ORIENTED_EDGE ( 'NONE', *, *, #76, .F. ) ;
#139 = AXIS2_PLACEMENT_3D ( 'NONE', #238, #64, #152 ) ;
#140 = DIRECTION ( 'NONE',  ( -0.000000000000000000, -0.000000000000000000, -1.000000000000000000 ) ) ;
#141 = LOCAL_TIME ( 19, 5, 59.00000000000000000, #33 ) ;
#142 = ORIENTED_EDGE ( 'NONE', *, *, #70, .T. ) ;
#143 = CARTESIAN_POINT ( 'NONE',  ( 0.000000000000000000, 0.000000000000000000, 0.000000000000000000 ) ) ;
#144 = VERTEX_POINT ( 'NONE', #162 ) ;
#145 = DIRECTION ( 'NONE',  ( 0.000000000000000000, 0.000000000000000000, 1.000000000000000000 ) ) ;
#146 = VERTEX_POINT ( 'NONE', #36 ) ;
#147 = AXIS2_PLACEMENT_3D ( 'NONE', #183, #2, #184 ) ;
#148 = LINE ( 'NONE', #126, #129 ) ;
#149 = DIRECTION ( 'NONE',  ( -0.000000000000000000, -0.000000000000000000, -1.000000000000000000 ) ) ;
#150 = APPROVAL ( #245, 'NEURÈENÝ' ) ;
#151 = DIRECTION ( 'NONE',  ( 1.000000000000000000, 0.000000000000000000, -0.000000000000000000 ) ) ;
#152 = DIRECTION ( 'NONE',  ( 1.000000000000000000, 0.000000000000000000, 0.000000000000000000 ) ) ;
#153 = APPROVAL_ROLE ( '' ) ;
#154 = APPROVAL_DATE_TIME ( #206, #130 ) ;
#155 = CALENDAR_DATE ( 2022, 7, 7 ) ;
#156 = PERSON_AND_ORGANIZATION ( #92, #235 ) ;
#157 = CC_DESIGN_PERSON_AND_ORGANIZATION_ASSIGNMENT ( #10, #31, ( #94 ) ) ;
#158 = EDGE_CURVE ( 'NONE', #236, #177, #27, .T. ) ;
#159 =( GEOMETRIC_REPRESENTATION_CONTEXT ( 3 ) GLOBAL_UNCERTAINTY_ASSIGNED_CONTEXT ( ( #173 ) ) GLOBAL_UNIT_ASSIGNED_CONTEXT ( ( #195, #215, #114 ) ) REPRESENTATION_CONTEXT ( 'NONE', 'WORKASPACE' ) );
#160 = FACE_OUTER_BOUND ( 'NONE', #123, .T. ) ;
#161 = ORIENTED_EDGE ( 'NONE', *, *, #46, .F. ) ;
#162 = CARTESIAN_POINT ( 'NONE',  ( -8.500000000000000000, 0.000000000000000000, 207.0000000000000284 ) ) ;
#163 = AXIS2_PLACEMENT_3D ( 'NONE', #45, #199, #151 ) ;
#164 = ORIENTED_EDGE ( 'NONE', *, *, #133, .T. ) ;
#165 = DIRECTION ( 'NONE',  ( 1.000000000000000000, 0.000000000000000000, -0.000000000000000000 ) ) ;
#166 = ADVANCED_FACE ( 'NONE', ( #160 ), #120, .T. ) ;
#167 = AXIS2_PLACEMENT_3D ( 'NONE', #104, #106, #3 ) ;
#168 = DIRECTION ( 'NONE',  ( 1.000000000000000000, 0.000000000000000000, 0.000000000000000000 ) ) ;
#169 = DIRECTION ( 'NONE',  ( -1.000000000000000000, 0.000000000000000000, 0.000000000000000000 ) ) ;
#170 = EDGE_LOOP ( 'NONE', ( #218, #28 ) ) ;
#171 = ADVANCED_FACE ( 'NONE', ( #219 ), #118, .T. ) ;
#172 = FACE_OUTER_BOUND ( 'NONE', #213, .T. ) ;
#173 = UNCERTAINTY_MEASURE_WITH_UNIT (LENGTH_MEASURE( 1.000000000000000082E-05 ), #195, 'distance_accuracy_value', 'NONE');
#174 = AXIS2_PLACEMENT_3D ( 'NONE', #254, #96, #79 ) ;
#175 = PERSON_AND_ORGANIZATION ( #92, #235 ) ;
#176 = DIRECTION ( 'NONE',  ( -0.000000000000000000, -0.000000000000000000, -1.000000000000000000 ) ) ;
#177 = VERTEX_POINT ( 'NONE', #247 ) ;
#178 = DIRECTION ( 'NONE',  ( 0.000000000000000000, 0.000000000000000000, 1.000000000000000000 ) ) ;
#179 = PLANE ( 'NONE',  #63 ) ;
#180 = DIRECTION ( 'NONE',  ( 1.000000000000000000, 0.000000000000000000, 0.000000000000000000 ) ) ;
#181 = CARTESIAN_POINT ( 'NONE',  ( 0.000000000000000000, 0.000000000000000000, 207.0000000000000284 ) ) ;
#182 = CARTESIAN_POINT ( 'NONE',  ( 8.500000000000000000, 1.040949779275250140E-15, 207.0000000000000284 ) ) ;
#183 = CARTESIAN_POINT ( 'NONE',  ( 0.000000000000000000, 0.000000000000000000, 7.000000000000000000 ) ) ;
#184 = DIRECTION ( 'NONE',  ( 1.000000000000000000, 0.000000000000000000, 0.000000000000000000 ) ) ;
#185 = CARTESIAN_POINT ( 'NONE',  ( 11.00000000000000000, 1.347111479062088405E-15, 7.000000000000000000 ) ) ;
#186 = LOCAL_TIME ( 19, 5, 59.00000000000000000, #108 ) ;
#187 = CALENDAR_DATE ( 2022, 7, 7 ) ;
#188 = PERSON_AND_ORGANIZATION_ROLE ( 'classification_officer' ) ;
#189 = DATE_AND_TIME ( #208, #131 ) ;
#190 = CIRCLE ( 'NONE', #85, 8.500000000000000000 ) ;
#191 = CC_DESIGN_APPROVAL ( #150, ( #94 ) ) ;
#192 = PERSON_AND_ORGANIZATION ( #92, #235 ) ;
#193 = CARTESIAN_POINT ( 'NONE',  ( 0.000000000000000000, 0.000000000000000000, 207.0000000000000284 ) ) ;
#194 = ORIENTED_EDGE ( 'NONE', *, *, #121, .F. ) ;
#195 =( LENGTH_UNIT ( ) NAMED_UNIT ( * ) SI_UNIT ( .MILLI., .METRE. ) );
#196 = CARTESIAN_POINT ( 'NONE',  ( -11.00000000000000000, 0.000000000000000000, 7.000000000000000000 ) ) ;
#197 = CC_DESIGN_PERSON_AND_ORGANIZATION_ASSIGNMENT ( #54, #230, ( #227 ) ) ;
#198 = DIRECTION ( 'NONE',  ( -1.000000000000000000, 0.000000000000000000, 0.000000000000000000 ) ) ;
#199 = DIRECTION ( 'NONE',  ( 0.000000000000000000, 0.000000000000000000, 1.000000000000000000 ) ) ;
#200 = PLANE ( 'NONE',  #48 ) ;
#201 = ADVANCED_FACE ( 'NONE', ( #210 ), #179, .F. ) ;
#202 = CYLINDRICAL_SURFACE ( 'NONE', #11, 8.500000000000000000 ) ;
#203 = CARTESIAN_POINT ( 'NONE',  ( 11.00000000000000000, 1.347111479062088405E-15, 7.000000000000000000 ) ) ;
#204 = AXIS2_PLACEMENT_3D ( 'NONE', #47, #88, #168 ) ;
#205 = APPROVAL_ROLE ( '' ) ;
#206 = DATE_AND_TIME ( #187, #186 ) ;
#207 = DATE_TIME_ROLE ( 'creation_date' ) ;
#208 = CALENDAR_DATE ( 2022, 7, 7 ) ;
#209 = SECURITY_CLASSIFICATION ( '', '', #34 ) ;
#210 = FACE_OUTER_BOUND ( 'NONE', #18, .T. ) ;
#211 = ORIENTED_EDGE ( 'NONE', *, *, #61, .T. ) ;
#212 = CARTESIAN_POINT ( 'NONE',  ( 0.000000000000000000, 0.000000000000000000, 0.000000000000000000 ) ) ;
#213 = EDGE_LOOP ( 'NONE', ( #59, #132, #43, #220 ) ) ;
#214 = CC_DESIGN_DATE_AND_TIME_ASSIGNMENT ( #189, #109, ( #209 ) ) ;
#215 =( NAMED_UNIT ( * ) PLANE_ANGLE_UNIT ( ) SI_UNIT ( $, .RADIAN. ) );
#216 = ORIENTED_EDGE ( 'NONE', *, *, #46, .T. ) ;
#217 = CARTESIAN_POINT ( 'NONE',  ( 0.000000000000000000, 0.000000000000000000, 7.000000000000000000 ) ) ;
#218 = ORIENTED_EDGE ( 'NONE', *, *, #127, .T. ) ;
#219 = FACE_OUTER_BOUND ( 'NONE', #49, .T. ) ;
#220 = ORIENTED_EDGE ( 'NONE', *, *, #95, .F. ) ;
#221 = DIRECTION ( 'NONE',  ( -0.000000000000000000, -0.000000000000000000, -1.000000000000000000 ) ) ;
#222 = CARTESIAN_POINT ( 'NONE',  ( 11.00000000000000000, 1.347111479062088405E-15, 0.000000000000000000 ) ) ;
#223 = VECTOR ( 'NONE', #87, 1000.000000000000000 ) ;
#224 = EDGE_LOOP ( 'NONE', ( #251, #116 ) ) ;
#225 = CARTESIAN_POINT ( 'NONE',  ( 0.000000000000000000, 0.000000000000000000, 7.000000000000000000 ) ) ;
#226 = DATE_AND_TIME ( #242, #20 ) ;
#227 = PRODUCT_DEFINITION ( 'NEZNÁMÝ', '', #94, #112 ) ;
#228 = AXIS2_PLACEMENT_3D ( 'NONE', #217, #178, #81 ) ;
#229 = COORDINATED_UNIVERSAL_TIME_OFFSET ( 1, 0, .AHEAD. ) ;
#230 = PERSON_AND_ORGANIZATION_ROLE ( 'creator' ) ;
#231 = APPLICATION_CONTEXT ( 'configuration controlled 3d designs of mechanical parts and assemblies' ) ;
#232 = ORIENTED_EDGE ( 'NONE', *, *, #95, .T. ) ;
#233 = DIRECTION ( 'NONE',  ( 0.000000000000000000, 0.000000000000000000, 1.000000000000000000 ) ) ;
#234 = VERTEX_POINT ( 'NONE', #196 ) ;
#235 = ORGANIZATION ( 'NEURÈENÝ', 'NEURÈENÝ', '' ) ;
#236 = VERTEX_POINT ( 'NONE', #19 ) ;
#237 = DIRECTION ( 'NONE',  ( 1.000000000000000000, 0.000000000000000000, 0.000000000000000000 ) ) ;
#238 = CARTESIAN_POINT ( 'NONE',  ( 0.000000000000000000, 0.000000000000000000, 207.0000000000000284 ) ) ;
#239 = DIRECTION ( 'NONE',  ( -0.000000000000000000, -0.000000000000000000, -1.000000000000000000 ) ) ;
#240 = DIRECTION ( 'NONE',  ( -1.000000000000000000, 0.000000000000000000, 0.000000000000000000 ) ) ;
#241 = CARTESIAN_POINT ( 'NONE',  ( -11.00000000000000000, 0.000000000000000000, 0.000000000000000000 ) ) ;
#242 = CALENDAR_DATE ( 2022, 7, 7 ) ;
#243 = APPROVAL_DATE_TIME ( #93, #150 ) ;
#244 = APPLICATION_PROTOCOL_DEFINITION ( 'international standard', 'config_control_design', 1994, #98 ) ;
#245 = APPROVAL_STATUS ( 'not_yet_approved' ) ;
#246 = CC_DESIGN_PERSON_AND_ORGANIZATION_ASSIGNMENT ( #175, #137, ( #22 ) ) ;
#247 = CARTESIAN_POINT ( 'NONE',  ( -8.500000000000000000, 0.000000000000000000, 7.000000000000000000 ) ) ;
#248 = CC_DESIGN_PERSON_AND_ORGANIZATION_ASSIGNMENT ( #56, #188, ( #209 ) ) ;
#249 = ORIENTED_EDGE ( 'NONE', *, *, #4, .F. ) ;
#250 = DIRECTION ( 'NONE',  ( 1.000000000000000000, 0.000000000000000000, 0.000000000000000000 ) ) ;
#251 = ORIENTED_EDGE ( 'NONE', *, *, #61, .F. ) ;
#252 = DIRECTION ( 'NONE',  ( 0.000000000000000000, 0.000000000000000000, 1.000000000000000000 ) ) ;
#253 = PRODUCT_RELATED_PRODUCT_CATEGORY ( 'detail', '', ( #22 ) ) ;
#254 = CARTESIAN_POINT ( 'NONE',  ( 0.000000000000000000, 0.000000000000000000, 7.000000000000000000 ) ) ;
#255 = ORIENTED_EDGE ( 'NONE', *, *, #127, .F. ) ;
ENDSEC;
END-ISO-10303-21;
