ISO-10303-21;
HEADER;
FILE_DESCRIPTION (( 'STEP AP203' ),
    '1' );
FILE_NAME ('c0c7.STEP',
    '2022-07-07T17:16:30',
    ( '' ),
    ( '' ),
    'SwSTEP 2.0',
    'SolidWorks 2019',
    '' );
FILE_SCHEMA (( 'CONFIG_CONTROL_DESIGN' ));
ENDSEC;

DATA;
#1 = ORIENTED_EDGE ( 'NONE', *, *, #83, .T. ) ;
#2 = APPROVAL ( #111, 'NEURÈENÝ' ) ;
#3 = ORIENTED_EDGE ( 'NONE', *, *, #235, .T. ) ;
#4 = CIRCLE ( 'NONE', #145, 6.500000000000000888 ) ;
#5 = ORIENTED_EDGE ( 'NONE', *, *, #240, .T. ) ;
#6 = VECTOR ( 'NONE', #92, 1000.000000000000000 ) ;
#7 = DIRECTION ( 'NONE',  ( 1.000000000000000000, 0.000000000000000000, 0.000000000000000000 ) ) ;
#8 = VECTOR ( 'NONE', #172, 1000.000000000000000 ) ;
#9 = CC_DESIGN_DATE_AND_TIME_ASSIGNMENT ( #208, #106, ( #60 ) ) ;
#10 = APPROVAL_ROLE ( '' ) ;
#11 = DIRECTION ( 'NONE',  ( -0.000000000000000000, -0.000000000000000000, -1.000000000000000000 ) ) ;
#12 = APPLICATION_PROTOCOL_DEFINITION ( 'international standard', 'config_control_design', 1994, #37 ) ;
#13 = CALENDAR_DATE ( 2022, 7, 7 ) ;
#14 = FACE_OUTER_BOUND ( 'NONE', #215, .T. ) ;
#15 = DATE_AND_TIME ( #210, #124 ) ;
#16 = AXIS2_PLACEMENT_3D ( 'NONE', #211, #71, #170 ) ;
#17 = CARTESIAN_POINT ( 'NONE',  ( 6.500000000000000888, 7.960204194457796463E-16, 322.0000000000000000 ) ) ;
#18 = ORIENTED_EDGE ( 'NONE', *, *, #79, .T. ) ;
#19 = EDGE_CURVE ( 'NONE', #233, #119, #195, .T. ) ;
#20 = EDGE_LOOP ( 'NONE', ( #39, #136, #22, #81 ) ) ;
#21 = DIRECTION ( 'NONE',  ( 0.000000000000000000, 0.000000000000000000, 1.000000000000000000 ) ) ;
#22 = ORIENTED_EDGE ( 'NONE', *, *, #133, .T. ) ;
#23 = EDGE_LOOP ( 'NONE', ( #59, #193, #77, #180 ) ) ;
#24 = DIRECTION ( 'NONE',  ( 0.000000000000000000, 0.000000000000000000, 1.000000000000000000 ) ) ;
#25 = APPROVAL ( #109, 'NEURÈENÝ' ) ;
#26 = SECURITY_CLASSIFICATION_LEVEL ( 'unclassified' ) ;
#27 = LINE ( 'NONE', #85, #201 ) ;
#28 = APPROVAL_STATUS ( 'not_yet_approved' ) ;
#29 = PERSON_AND_ORGANIZATION ( #114, #206 ) ;
#30 = CARTESIAN_POINT ( 'NONE',  ( 0.000000000000000000, 0.000000000000000000, 322.0000000000000000 ) ) ;
#31 =( NAMED_UNIT ( * ) SI_UNIT ( $, .STERADIAN. ) SOLID_ANGLE_UNIT ( ) );
#32 = APPROVAL ( #28, 'NEURÈENÝ' ) ;
#33 = CLOSED_SHELL ( 'NONE', ( #219, #184, #248, #121, #36, #217, #55 ) ) ;
#34 = AXIS2_PLACEMENT_3D ( 'NONE', #230, #191, #73 ) ;
#35 = CC_DESIGN_SECURITY_CLASSIFICATION ( #60, ( #89 ) ) ;
#36 = ADVANCED_FACE ( 'NONE', ( #160 ), #162, .F. ) ;
#37 = APPLICATION_CONTEXT ( 'configuration controlled 3d designs of mechanical parts and assemblies' ) ;
#38 = CARTESIAN_POINT ( 'NONE',  ( 0.000000000000000000, 0.000000000000000000, 0.000000000000000000 ) ) ;
#39 = ORIENTED_EDGE ( 'NONE', *, *, #240, .F. ) ;
#40 = ORIENTED_EDGE ( 'NONE', *, *, #53, .F. ) ;
#41 = VERTEX_POINT ( 'NONE', #174 ) ;
#42 = DIRECTION ( 'NONE',  ( 1.000000000000000000, 0.000000000000000000, -0.000000000000000000 ) ) ;
#43 = AXIS2_PLACEMENT_3D ( 'NONE', #122, #214, #95 ) ;
#44 = MANIFOLD_SOLID_BREP ( 'Pøidat vysunutím3', #33 ) ;
#45 = APPROVAL_DATE_TIME ( #224, #2 ) ;
#46 = DIRECTION ( 'NONE',  ( 0.000000000000000000, 0.000000000000000000, 1.000000000000000000 ) ) ;
#47 = MECHANICAL_CONTEXT ( 'NONE', #37, 'mechanical' ) ;
#48 = AXIS2_PLACEMENT_3D ( 'NONE', #149, #46, #126 ) ;
#49 = PERSON_AND_ORGANIZATION_ROLE ( 'design_supplier' ) ;
#50 = CARTESIAN_POINT ( 'NONE',  ( 11.00000000000000000, 1.347111479062088405E-15, 0.000000000000000000 ) ) ;
#51 = UNCERTAINTY_MEASURE_WITH_UNIT (LENGTH_MEASURE( 1.000000000000000082E-05 ), #155, 'distance_accuracy_value', 'NONE');
#52 =( NAMED_UNIT ( * ) PLANE_ANGLE_UNIT ( ) SI_UNIT ( $, .RADIAN. ) );
#53 = EDGE_CURVE ( 'NONE', #41, #137, #98, .T. ) ;
#54 = AXIS2_PLACEMENT_3D ( 'NONE', #253, #62, #42 ) ;
#55 = ADVANCED_FACE ( 'NONE', ( #116 ), #118, .T. ) ;
#56 = CARTESIAN_POINT ( 'NONE',  ( -6.500000000000000888, 0.000000000000000000, 7.000000000000000000 ) ) ;
#57 = ORIENTED_EDGE ( 'NONE', *, *, #67, .T. ) ;
#58 = VERTEX_POINT ( 'NONE', #56 ) ;
#59 = ORIENTED_EDGE ( 'NONE', *, *, #235, .F. ) ;
#60 = SECURITY_CLASSIFICATION ( '', '', #26 ) ;
#61 = EDGE_LOOP ( 'NONE', ( #1, #57 ) ) ;
#62 = DIRECTION ( 'NONE',  ( 0.000000000000000000, 0.000000000000000000, 1.000000000000000000 ) ) ;
#63 = CIRCLE ( 'NONE', #48, 11.00000000000000000 ) ;
#64 = PERSON_AND_ORGANIZATION ( #114, #206 ) ;
#65 = PERSON_AND_ORGANIZATION ( #114, #206 ) ;
#66 = CARTESIAN_POINT ( 'NONE',  ( 0.000000000000000000, 0.000000000000000000, 322.0000000000000000 ) ) ;
#67 = EDGE_CURVE ( 'NONE', #120, #41, #112, .T. ) ;
#68 = CARTESIAN_POINT ( 'NONE',  ( 0.000000000000000000, 0.000000000000000000, 0.000000000000000000 ) ) ;
#69 = DIRECTION ( 'NONE',  ( 0.000000000000000000, 0.000000000000000000, 1.000000000000000000 ) ) ;
#70 = PERSON_AND_ORGANIZATION_ROLE ( 'design_owner' ) ;
#71 = DIRECTION ( 'NONE',  ( -0.000000000000000000, -0.000000000000000000, -1.000000000000000000 ) ) ;
#72 = CC_DESIGN_PERSON_AND_ORGANIZATION_ASSIGNMENT ( #65, #185, ( #60 ) ) ;
#73 = DIRECTION ( 'NONE',  ( 1.000000000000000000, 0.000000000000000000, 0.000000000000000000 ) ) ;
#74 = CIRCLE ( 'NONE', #134, 6.500000000000000888 ) ;
#75 = CARTESIAN_POINT ( 'NONE',  ( 0.000000000000000000, 0.000000000000000000, 7.000000000000000000 ) ) ;
#76 = EDGE_LOOP ( 'NONE', ( #234, #175 ) ) ;
#77 = ORIENTED_EDGE ( 'NONE', *, *, #53, .T. ) ;
#78 = CARTESIAN_POINT ( 'NONE',  ( -11.00000000000000000, 0.000000000000000000, 7.000000000000000000 ) ) ;
#79 = EDGE_CURVE ( 'NONE', #58, #119, #4, .T. ) ;
#80 = AXIS2_PLACEMENT_3D ( 'NONE', #166, #11, #225 ) ;
#81 = ORIENTED_EDGE ( 'NONE', *, *, #192, .F. ) ;
#82 = FACE_BOUND ( 'NONE', #99, .T. ) ;
#83 = EDGE_CURVE ( 'NONE', #41, #120, #252, .T. ) ;
#84 = CALENDAR_DATE ( 2022, 7, 7 ) ;
#85 = CARTESIAN_POINT ( 'NONE',  ( -6.500000000000000888, 0.000000000000000000, 322.0000000000000000 ) ) ;
#86 = COORDINATED_UNIVERSAL_TIME_OFFSET ( 1, 0, .AHEAD. ) ;
#87 = CARTESIAN_POINT ( 'NONE',  ( 0.000000000000000000, 0.000000000000000000, 322.0000000000000000 ) ) ;
#88 = APPROVAL_DATE_TIME ( #15, #32 ) ;
#89 = PRODUCT_DEFINITION_FORMATION_WITH_SPECIFIED_SOURCE ( 'LIBOVOLNÝ', '', #94, .NOT_KNOWN. ) ;
#90 = CC_DESIGN_DATE_AND_TIME_ASSIGNMENT ( #183, #91, ( #229 ) ) ;
#91 = DATE_TIME_ROLE ( 'creation_date' ) ;
#92 = DIRECTION ( 'NONE',  ( -0.000000000000000000, -0.000000000000000000, -1.000000000000000000 ) ) ;
#93 = LOCAL_TIME ( 19, 16, 30.00000000000000000, #86 ) ;
#94 = PRODUCT ( 'c0c7', 'c0c7', '', ( #47 ) ) ;
#95 = DIRECTION ( 'NONE',  ( 1.000000000000000000, 0.000000000000000000, 0.000000000000000000 ) ) ;
#96 = VERTEX_POINT ( 'NONE', #194 ) ;
#97 = CARTESIAN_POINT ( 'NONE',  ( 0.000000000000000000, 0.000000000000000000, 7.000000000000000000 ) ) ;
#98 = LINE ( 'NONE', #78, #223 ) ;
#99 = EDGE_LOOP ( 'NONE', ( #236, #238 ) ) ;
#100 = ORIENTED_EDGE ( 'NONE', *, *, #150, .F. ) ;
#101 = CIRCLE ( 'NONE', #245, 6.500000000000000888 ) ;
#102 = CARTESIAN_POINT ( 'NONE',  ( 6.500000000000000888, 7.960204194457796463E-16, 322.0000000000000000 ) ) ;
#103 = EDGE_CURVE ( 'NONE', #137, #161, #188, .T. ) ;
#104 = DESIGN_CONTEXT ( 'detailed design', #220, 'design' ) ;
#105 = ORIENTED_EDGE ( 'NONE', *, *, #67, .F. ) ;
#106 = DATE_TIME_ROLE ( 'classification_date' ) ;
#107 = DIRECTION ( 'NONE',  ( 1.000000000000000000, 0.000000000000000000, 0.000000000000000000 ) ) ;
#108 = CALENDAR_DATE ( 2022, 7, 7 ) ;
#109 = APPROVAL_STATUS ( 'not_yet_approved' ) ;
#110 = DIRECTION ( 'NONE',  ( 1.000000000000000000, 0.000000000000000000, 0.000000000000000000 ) ) ;
#111 = APPROVAL_STATUS ( 'not_yet_approved' ) ;
#112 = CIRCLE ( 'NONE', #152, 11.00000000000000000 ) ;
#113 = PRODUCT_DEFINITION_SHAPE ( 'NONE', 'NONE',  #229 ) ;
#114 = PERSON ( 'NEURÈENÝ', 'NEURÈENÝ', 'NEURÈENÝ', ('NEURÈENÝ'), ('NEURÈENÝ'), ('NEURÈENÝ') ) ;
#115 = DIRECTION ( 'NONE',  ( 0.000000000000000000, 0.000000000000000000, 1.000000000000000000 ) ) ;
#116 = FACE_OUTER_BOUND ( 'NONE', #198, .T. ) ;
#117 = CC_DESIGN_PERSON_AND_ORGANIZATION_ASSIGNMENT ( #143, #49, ( #89 ) ) ;
#118 = PLANE ( 'NONE',  #156 ) ;
#119 = VERTEX_POINT ( 'NONE', #141 ) ;
#120 = VERTEX_POINT ( 'NONE', #171 ) ;
#121 = ADVANCED_FACE ( 'NONE', ( #82, #163 ), #239, .T. ) ;
#122 = CARTESIAN_POINT ( 'NONE',  ( 0.000000000000000000, 0.000000000000000000, 7.000000000000000000 ) ) ;
#123 = AXIS2_PLACEMENT_3D ( 'NONE', #87, #168, #246 ) ;
#124 = LOCAL_TIME ( 19, 16, 30.00000000000000000, #167 ) ;
#125 = ORIENTED_EDGE ( 'NONE', *, *, #150, .T. ) ;
#126 = DIRECTION ( 'NONE',  ( 1.000000000000000000, 0.000000000000000000, 0.000000000000000000 ) ) ;
#127 = COORDINATED_UNIVERSAL_TIME_OFFSET ( 1, 0, .AHEAD. ) ;
#128 = COORDINATED_UNIVERSAL_TIME_OFFSET ( 1, 0, .AHEAD. ) ;
#129 = DIRECTION ( 'NONE',  ( -1.000000000000000000, 0.000000000000000000, 0.000000000000000000 ) ) ;
#130 = APPROVAL_ROLE ( '' ) ;
#131 = CARTESIAN_POINT ( 'NONE',  ( 11.00000000000000000, 1.347111479062088405E-15, 7.000000000000000000 ) ) ;
#132 = LOCAL_TIME ( 19, 16, 30.00000000000000000, #128 ) ;
#133 = EDGE_CURVE ( 'NONE', #119, #58, #101, .T. ) ;
#134 = AXIS2_PLACEMENT_3D ( 'NONE', #30, #69, #110 ) ;
#135 = DIRECTION ( 'NONE',  ( 0.000000000000000000, 0.000000000000000000, 1.000000000000000000 ) ) ;
#136 = ORIENTED_EDGE ( 'NONE', *, *, #19, .T. ) ;
#137 = VERTEX_POINT ( 'NONE', #222 ) ;
#138 = ADVANCED_BREP_SHAPE_REPRESENTATION ( 'c0c7', ( #44, #251 ), #231 ) ;
#139 = ORIENTED_EDGE ( 'NONE', *, *, #19, .F. ) ;
#140 = DIRECTION ( 'NONE',  ( 0.000000000000000000, 0.000000000000000000, 1.000000000000000000 ) ) ;
#141 = CARTESIAN_POINT ( 'NONE',  ( 6.500000000000000888, 7.960204194457796463E-16, 7.000000000000000000 ) ) ;
#142 = PRODUCT_RELATED_PRODUCT_CATEGORY ( 'detail', '', ( #94 ) ) ;
#143 = PERSON_AND_ORGANIZATION ( #114, #206 ) ;
#144 = APPROVAL_ROLE ( '' ) ;
#145 = AXIS2_PLACEMENT_3D ( 'NONE', #97, #24, #178 ) ;
#146 = DIRECTION ( 'NONE',  ( -0.000000000000000000, -0.000000000000000000, -1.000000000000000000 ) ) ;
#147 = CIRCLE ( 'NONE', #34, 6.500000000000000888 ) ;
#148 = PERSON_AND_ORGANIZATION ( #114, #206 ) ;
#149 = CARTESIAN_POINT ( 'NONE',  ( 0.000000000000000000, 0.000000000000000000, 0.000000000000000000 ) ) ;
#150 = EDGE_CURVE ( 'NONE', #96, #233, #74, .T. ) ;
#151 = PERSON_AND_ORGANIZATION ( #114, #206 ) ;
#152 = AXIS2_PLACEMENT_3D ( 'NONE', #157, #115, #200 ) ;
#153 = CYLINDRICAL_SURFACE ( 'NONE', #16, 11.00000000000000000 ) ;
#154 = LOCAL_TIME ( 19, 16, 30.00000000000000000, #181 ) ;
#155 =( LENGTH_UNIT ( ) NAMED_UNIT ( * ) SI_UNIT ( .MILLI., .METRE. ) );
#156 = AXIS2_PLACEMENT_3D ( 'NONE', #197, #21, #218 ) ;
#157 = CARTESIAN_POINT ( 'NONE',  ( 0.000000000000000000, 0.000000000000000000, 7.000000000000000000 ) ) ;
#158 = EDGE_LOOP ( 'NONE', ( #105, #3, #199, #40 ) ) ;
#159 = CC_DESIGN_PERSON_AND_ORGANIZATION_ASSIGNMENT ( #151, #228, ( #229 ) ) ;
#160 = FACE_OUTER_BOUND ( 'NONE', #76, .T. ) ;
#161 = VERTEX_POINT ( 'NONE', #50 ) ;
#162 = PLANE ( 'NONE',  #212 ) ;
#163 = FACE_OUTER_BOUND ( 'NONE', #61, .T. ) ;
#164 = CC_DESIGN_PERSON_AND_ORGANIZATION_ASSIGNMENT ( #64, #243, ( #89 ) ) ;
#165 = CALENDAR_DATE ( 2022, 7, 7 ) ;
#166 = CARTESIAN_POINT ( 'NONE',  ( 0.000000000000000000, 0.000000000000000000, 7.000000000000000000 ) ) ;
#167 = COORDINATED_UNIVERSAL_TIME_OFFSET ( 1, 0, .AHEAD. ) ;
#168 = DIRECTION ( 'NONE',  ( -0.000000000000000000, -0.000000000000000000, -1.000000000000000000 ) ) ;
#169 = PERSON_AND_ORGANIZATION ( #114, #206 ) ;
#170 = DIRECTION ( 'NONE',  ( -1.000000000000000000, 0.000000000000000000, 0.000000000000000000 ) ) ;
#171 = CARTESIAN_POINT ( 'NONE',  ( 11.00000000000000000, 1.347111479062088405E-15, 7.000000000000000000 ) ) ;
#172 = DIRECTION ( 'NONE',  ( -0.000000000000000000, -0.000000000000000000, -1.000000000000000000 ) ) ;
#173 = CC_DESIGN_APPROVAL ( #2, ( #89 ) ) ;
#174 = CARTESIAN_POINT ( 'NONE',  ( -11.00000000000000000, 0.000000000000000000, 7.000000000000000000 ) ) ;
#175 = ORIENTED_EDGE ( 'NONE', *, *, #190, .F. ) ;
#176 = ORIENTED_EDGE ( 'NONE', *, *, #192, .T. ) ;
#177 = AXIS2_PLACEMENT_3D ( 'NONE', #38, #135, #7 ) ;
#178 = DIRECTION ( 'NONE',  ( 1.000000000000000000, 0.000000000000000000, 0.000000000000000000 ) ) ;
#179 = DIRECTION ( 'NONE',  ( -0.000000000000000000, -0.000000000000000000, -1.000000000000000000 ) ) ;
#180 = ORIENTED_EDGE ( 'NONE', *, *, #103, .T. ) ;
#181 = COORDINATED_UNIVERSAL_TIME_OFFSET ( 1, 0, .AHEAD. ) ;
#182 = CYLINDRICAL_SURFACE ( 'NONE', #213, 6.500000000000000888 ) ;
#183 = DATE_AND_TIME ( #108, #237 ) ;
#184 = ADVANCED_FACE ( 'NONE', ( #244 ), #209, .T. ) ;
#185 = PERSON_AND_ORGANIZATION_ROLE ( 'classification_officer' ) ;
#186 = DIRECTION ( 'NONE',  ( -0.000000000000000000, -0.000000000000000000, -1.000000000000000000 ) ) ;
#187 = DIRECTION ( 'NONE',  ( 0.000000000000000000, 0.000000000000000000, 1.000000000000000000 ) ) ;
#188 = CIRCLE ( 'NONE', #177, 11.00000000000000000 ) ;
#189 = CC_DESIGN_APPROVAL ( #25, ( #60 ) ) ;
#190 = EDGE_CURVE ( 'NONE', #161, #137, #63, .T. ) ;
#191 = DIRECTION ( 'NONE',  ( 0.000000000000000000, 0.000000000000000000, 1.000000000000000000 ) ) ;
#192 = EDGE_CURVE ( 'NONE', #96, #58, #27, .T. ) ;
#193 = ORIENTED_EDGE ( 'NONE', *, *, #83, .F. ) ;
#194 = CARTESIAN_POINT ( 'NONE',  ( -6.500000000000000888, 0.000000000000000000, 322.0000000000000000 ) ) ;
#195 = LINE ( 'NONE', #102, #8 ) ;
#196 = CC_DESIGN_APPROVAL ( #32, ( #229 ) ) ;
#197 = CARTESIAN_POINT ( 'NONE',  ( 0.000000000000000000, 0.000000000000000000, 322.0000000000000000 ) ) ;
#198 = EDGE_LOOP ( 'NONE', ( #125, #5 ) ) ;
#199 = ORIENTED_EDGE ( 'NONE', *, *, #190, .T. ) ;
#200 = DIRECTION ( 'NONE',  ( 1.000000000000000000, 0.000000000000000000, 0.000000000000000000 ) ) ;
#201 = VECTOR ( 'NONE', #186, 1000.000000000000000 ) ;
#202 = APPROVAL_PERSON_ORGANIZATION ( #148, #32, #130 ) ;
#203 = CC_DESIGN_PERSON_AND_ORGANIZATION_ASSIGNMENT ( #247, #70, ( #94 ) ) ;
#204 = DATE_AND_TIME ( #84, #93 ) ;
#205 = CYLINDRICAL_SURFACE ( 'NONE', #123, 6.500000000000000888 ) ;
#206 = ORGANIZATION ( 'NEURÈENÝ', 'NEURÈENÝ', '' ) ;
#207 = DIRECTION ( 'NONE',  ( 1.000000000000000000, 0.000000000000000000, 0.000000000000000000 ) ) ;
#208 = DATE_AND_TIME ( #13, #132 ) ;
#209 = CYLINDRICAL_SURFACE ( 'NONE', #80, 11.00000000000000000 ) ;
#210 = CALENDAR_DATE ( 2022, 7, 7 ) ;
#211 = CARTESIAN_POINT ( 'NONE',  ( 0.000000000000000000, 0.000000000000000000, 7.000000000000000000 ) ) ;
#212 = AXIS2_PLACEMENT_3D ( 'NONE', #254, #140, #216 ) ;
#213 = AXIS2_PLACEMENT_3D ( 'NONE', #66, #146, #129 ) ;
#214 = DIRECTION ( 'NONE',  ( 0.000000000000000000, 0.000000000000000000, 1.000000000000000000 ) ) ;
#215 = EDGE_LOOP ( 'NONE', ( #139, #100, #176, #18 ) ) ;
#216 = DIRECTION ( 'NONE',  ( 1.000000000000000000, 0.000000000000000000, -0.000000000000000000 ) ) ;
#217 = ADVANCED_FACE ( 'NONE', ( #14 ), #205, .T. ) ;
#218 = DIRECTION ( 'NONE',  ( 1.000000000000000000, 0.000000000000000000, -0.000000000000000000 ) ) ;
#219 = ADVANCED_FACE ( 'NONE', ( #227 ), #182, .T. ) ;
#220 = APPLICATION_CONTEXT ( 'configuration controlled 3d designs of mechanical parts and assemblies' ) ;
#221 = SHAPE_DEFINITION_REPRESENTATION ( #113, #138 ) ;
#222 = CARTESIAN_POINT ( 'NONE',  ( -11.00000000000000000, 0.000000000000000000, 0.000000000000000000 ) ) ;
#223 = VECTOR ( 'NONE', #179, 1000.000000000000000 ) ;
#224 = DATE_AND_TIME ( #165, #154 ) ;
#225 = DIRECTION ( 'NONE',  ( -1.000000000000000000, 0.000000000000000000, 0.000000000000000000 ) ) ;
#226 = APPLICATION_PROTOCOL_DEFINITION ( 'international standard', 'config_control_design', 1994, #220 ) ;
#227 = FACE_OUTER_BOUND ( 'NONE', #20, .T. ) ;
#228 = PERSON_AND_ORGANIZATION_ROLE ( 'creator' ) ;
#229 = PRODUCT_DEFINITION ( 'NEZNÁMÝ', '', #89, #104 ) ;
#230 = CARTESIAN_POINT ( 'NONE',  ( 0.000000000000000000, 0.000000000000000000, 322.0000000000000000 ) ) ;
#231 =( GEOMETRIC_REPRESENTATION_CONTEXT ( 3 ) GLOBAL_UNCERTAINTY_ASSIGNED_CONTEXT ( ( #51 ) ) GLOBAL_UNIT_ASSIGNED_CONTEXT ( ( #155, #52, #31 ) ) REPRESENTATION_CONTEXT ( 'NONE', 'WORKASPACE' ) );
#232 = DIRECTION ( 'NONE',  ( 0.000000000000000000, 0.000000000000000000, 1.000000000000000000 ) ) ;
#233 = VERTEX_POINT ( 'NONE', #17 ) ;
#234 = ORIENTED_EDGE ( 'NONE', *, *, #103, .F. ) ;
#235 = EDGE_CURVE ( 'NONE', #120, #161, #250, .T. ) ;
#236 = ORIENTED_EDGE ( 'NONE', *, *, #79, .F. ) ;
#237 = LOCAL_TIME ( 19, 16, 30.00000000000000000, #127 ) ;
#238 = ORIENTED_EDGE ( 'NONE', *, *, #133, .F. ) ;
#239 = PLANE ( 'NONE',  #54 ) ;
#240 = EDGE_CURVE ( 'NONE', #233, #96, #147, .T. ) ;
#241 = APPROVAL_PERSON_ORGANIZATION ( #29, #25, #10 ) ;
#242 = APPROVAL_DATE_TIME ( #204, #25 ) ;
#243 = PERSON_AND_ORGANIZATION_ROLE ( 'creator' ) ;
#244 = FACE_OUTER_BOUND ( 'NONE', #158, .T. ) ;
#245 = AXIS2_PLACEMENT_3D ( 'NONE', #75, #232, #107 ) ;
#246 = DIRECTION ( 'NONE',  ( -1.000000000000000000, 0.000000000000000000, 0.000000000000000000 ) ) ;
#247 = PERSON_AND_ORGANIZATION ( #114, #206 ) ;
#248 = ADVANCED_FACE ( 'NONE', ( #249 ), #153, .T. ) ;
#249 = FACE_OUTER_BOUND ( 'NONE', #23, .T. ) ;
#250 = LINE ( 'NONE', #131, #6 ) ;
#251 = AXIS2_PLACEMENT_3D ( 'NONE', #68, #187, #207 ) ;
#252 = CIRCLE ( 'NONE', #43, 11.00000000000000000 ) ;
#253 = CARTESIAN_POINT ( 'NONE',  ( 0.000000000000000000, 0.000000000000000000, 7.000000000000000000 ) ) ;
#254 = CARTESIAN_POINT ( 'NONE',  ( 0.000000000000000000, 0.000000000000000000, 0.000000000000000000 ) ) ;
#255 = APPROVAL_PERSON_ORGANIZATION ( #169, #2, #144 ) ;
ENDSEC;
END-ISO-10303-21;
