ISO-10303-21;
HEADER;
FILE_DESCRIPTION (( 'STEP AP203' ),
    '1' );
FILE_NAME ('4ac7.STEP',
    '2022-07-07T17:44:40',
    ( '' ),
    ( '' ),
    'SwSTEP 2.0',
    'SolidWorks 2019',
    '' );
FILE_SCHEMA (( 'CONFIG_CONTROL_DESIGN' ));
ENDSEC;

DATA;
#1 = AXIS2_PLACEMENT_3D ( 'NONE', #254, #196, #235 ) ;
#2 = CIRCLE ( 'NONE', #22, 2.600000000000000089 ) ;
#3 = ORIENTED_EDGE ( 'NONE', *, *, #199, .F. ) ;
#4 = PERSON_AND_ORGANIZATION ( #117, #57 ) ;
#5 = VERTEX_POINT ( 'NONE', #100 ) ;
#6 = CIRCLE ( 'NONE', #118, 2.600000000000000089 ) ;
#7 = COORDINATED_UNIVERSAL_TIME_OFFSET ( 1, 0, .AHEAD. ) ;
#8 = FACE_OUTER_BOUND ( 'NONE', #103, .T. ) ;
#9 = DIRECTION ( 'NONE',  ( 1.000000000000000000, 0.000000000000000000, -0.000000000000000000 ) ) ;
#10 =( LENGTH_UNIT ( ) NAMED_UNIT ( * ) SI_UNIT ( .MILLI., .METRE. ) );
#11 = DIRECTION ( 'NONE',  ( 1.000000000000000000, 0.000000000000000000, 0.000000000000000000 ) ) ;
#12 = DIRECTION ( 'NONE',  ( -1.000000000000000000, 0.000000000000000000, 0.000000000000000000 ) ) ;
#13 = APPROVAL_ROLE ( '' ) ;
#14 = CIRCLE ( 'NONE', #116, 5.000000000000000000 ) ;
#15 = CARTESIAN_POINT ( 'NONE',  ( -5.000000000000000000, 0.000000000000000000, 0.000000000000000000 ) ) ;
#16 = AXIS2_PLACEMENT_3D ( 'NONE', #111, #212, #215 ) ;
#17 = CARTESIAN_POINT ( 'NONE',  ( -5.000000000000000000, 0.000000000000000000, 3.000000000000000000 ) ) ;
#18 = DIRECTION ( 'NONE',  ( 0.000000000000000000, 0.000000000000000000, 1.000000000000000000 ) ) ;
#19 = EDGE_CURVE ( 'NONE', #126, #168, #14, .T. ) ;
#20 = ADVANCED_BREP_SHAPE_REPRESENTATION ( '4ac7', ( #141, #158 ), #140 ) ;
#21 = SECURITY_CLASSIFICATION_LEVEL ( 'unclassified' ) ;
#22 = AXIS2_PLACEMENT_3D ( 'NONE', #75, #214, #33 ) ;
#23 = DATE_TIME_ROLE ( 'classification_date' ) ;
#24 = ORIENTED_EDGE ( 'NONE', *, *, #28, .T. ) ;
#25 = PERSON_AND_ORGANIZATION ( #117, #57 ) ;
#26 = ORIENTED_EDGE ( 'NONE', *, *, #229, .F. ) ;
#27 = ORIENTED_EDGE ( 'NONE', *, *, #139, .F. ) ;
#28 = EDGE_CURVE ( 'NONE', #230, #5, #119, .T. ) ;
#29 = DIRECTION ( 'NONE',  ( 1.000000000000000000, 0.000000000000000000, 0.000000000000000000 ) ) ;
#30 = CARTESIAN_POINT ( 'NONE',  ( 0.000000000000000000, 0.000000000000000000, 503.0000000000000000 ) ) ;
#31 = FACE_OUTER_BOUND ( 'NONE', #107, .T. ) ;
#32 = PRODUCT ( '4ac7', '4ac7', '', ( #187 ) ) ;
#33 = DIRECTION ( 'NONE',  ( 1.000000000000000000, 0.000000000000000000, 0.000000000000000000 ) ) ;
#34 = FACE_BOUND ( 'NONE', #82, .T. ) ;
#35 = LOCAL_TIME ( 19, 44, 40.00000000000000000, #63 ) ;
#36 = CARTESIAN_POINT ( 'NONE',  ( 0.000000000000000000, 0.000000000000000000, 503.0000000000000000 ) ) ;
#37 = ADVANCED_FACE ( 'NONE', ( #8 ), #59, .F. ) ;
#38 = APPROVAL ( #248, 'NEURÈENÝ' ) ;
#39 = VECTOR ( 'NONE', #137, 1000.000000000000000 ) ;
#40 = VECTOR ( 'NONE', #55, 1000.000000000000000 ) ;
#41 = PERSON_AND_ORGANIZATION ( #117, #57 ) ;
#42 = DIRECTION ( 'NONE',  ( 1.000000000000000000, 0.000000000000000000, 0.000000000000000000 ) ) ;
#43 = PERSON_AND_ORGANIZATION ( #117, #57 ) ;
#44 = ORIENTED_EDGE ( 'NONE', *, *, #19, .T. ) ;
#45 = ORIENTED_EDGE ( 'NONE', *, *, #229, .T. ) ;
#46 = AXIS2_PLACEMENT_3D ( 'NONE', #30, #153, #171 ) ;
#47 = CALENDAR_DATE ( 2022, 7, 7 ) ;
#48 = ORIENTED_EDGE ( 'NONE', *, *, #110, .F. ) ;
#49 = FACE_OUTER_BOUND ( 'NONE', #244, .T. ) ;
#50 =( NAMED_UNIT ( * ) SI_UNIT ( $, .STERADIAN. ) SOLID_ANGLE_UNIT ( ) );
#51 = DIRECTION ( 'NONE',  ( 0.000000000000000000, 0.000000000000000000, 1.000000000000000000 ) ) ;
#52 = PERSON_AND_ORGANIZATION ( #117, #57 ) ;
#53 = CARTESIAN_POINT ( 'NONE',  ( 5.000000000000000000, 6.123233995736766282E-16, 3.000000000000000000 ) ) ;
#54 = EDGE_CURVE ( 'NONE', #207, #188, #237, .T. ) ;
#55 = DIRECTION ( 'NONE',  ( -0.000000000000000000, -0.000000000000000000, -1.000000000000000000 ) ) ;
#56 = CC_DESIGN_APPROVAL ( #38, ( #124 ) ) ;
#57 = ORGANIZATION ( 'NEURÈENÝ', 'NEURÈENÝ', '' ) ;
#58 = CLOSED_SHELL ( 'NONE', ( #79, #243, #127, #203, #37, #180, #219 ) ) ;
#59 = PLANE ( 'NONE',  #209 ) ;
#60 = APPLICATION_CONTEXT ( 'configuration controlled 3d designs of mechanical parts and assemblies' ) ;
#61 = AXIS2_PLACEMENT_3D ( 'NONE', #205, #191, #11 ) ;
#62 = ORIENTED_EDGE ( 'NONE', *, *, #159, .F. ) ;
#63 = COORDINATED_UNIVERSAL_TIME_OFFSET ( 1, 0, .AHEAD. ) ;
#64 = ORIENTED_EDGE ( 'NONE', *, *, #159, .T. ) ;
#65 = UNCERTAINTY_MEASURE_WITH_UNIT (LENGTH_MEASURE( 1.000000000000000082E-05 ), #10, 'distance_accuracy_value', 'NONE');
#66 = CYLINDRICAL_SURFACE ( 'NONE', #218, 5.000000000000000000 ) ;
#67 = ORIENTED_EDGE ( 'NONE', *, *, #240, .F. ) ;
#68 = EDGE_CURVE ( 'NONE', #168, #188, #174, .T. ) ;
#69 = PLANE ( 'NONE',  #99 ) ;
#70 = CIRCLE ( 'NONE', #16, 5.000000000000000000 ) ;
#71 = DIRECTION ( 'NONE',  ( -1.000000000000000000, 0.000000000000000000, 0.000000000000000000 ) ) ;
#72 = ORIENTED_EDGE ( 'NONE', *, *, #78, .F. ) ;
#73 = CARTESIAN_POINT ( 'NONE',  ( 5.000000000000000000, 6.123233995736766282E-16, 3.000000000000000000 ) ) ;
#74 = CALENDAR_DATE ( 2022, 7, 7 ) ;
#75 = CARTESIAN_POINT ( 'NONE',  ( 0.000000000000000000, 0.000000000000000000, 3.000000000000000000 ) ) ;
#76 = FACE_OUTER_BOUND ( 'NONE', #165, .T. ) ;
#77 = LOCAL_TIME ( 19, 44, 40.00000000000000000, #204 ) ;
#78 = EDGE_CURVE ( 'NONE', #126, #207, #157, .T. ) ;
#79 = ADVANCED_FACE ( 'NONE', ( #31 ), #192, .T. ) ;
#80 = CALENDAR_DATE ( 2022, 7, 7 ) ;
#81 = CC_DESIGN_PERSON_AND_ORGANIZATION_ASSIGNMENT ( #43, #143, ( #124 ) ) ;
#82 = EDGE_LOOP ( 'NONE', ( #3, #26 ) ) ;
#83 = EDGE_LOOP ( 'NONE', ( #225, #182, #249, #105 ) ) ;
#84 = LOCAL_TIME ( 19, 44, 40.00000000000000000, #161 ) ;
#85 = DIRECTION ( 'NONE',  ( 1.000000000000000000, 0.000000000000000000, 0.000000000000000000 ) ) ;
#86 = ORIENTED_EDGE ( 'NONE', *, *, #110, .T. ) ;
#87 = DIRECTION ( 'NONE',  ( 1.000000000000000000, 0.000000000000000000, 0.000000000000000000 ) ) ;
#88 = DESIGN_CONTEXT ( 'detailed design', #200, 'design' ) ;
#89 = ORIENTED_EDGE ( 'NONE', *, *, #199, .T. ) ;
#90 = CARTESIAN_POINT ( 'NONE',  ( 0.000000000000000000, 0.000000000000000000, 503.0000000000000000 ) ) ;
#91 = DIRECTION ( 'NONE',  ( -0.000000000000000000, -0.000000000000000000, -1.000000000000000000 ) ) ;
#92 = CC_DESIGN_APPROVAL ( #164, ( #216 ) ) ;
#93 = CARTESIAN_POINT ( 'NONE',  ( -5.000000000000000000, 0.000000000000000000, 3.000000000000000000 ) ) ;
#94 = CARTESIAN_POINT ( 'NONE',  ( 0.000000000000000000, 0.000000000000000000, 503.0000000000000000 ) ) ;
#95 = VECTOR ( 'NONE', #189, 1000.000000000000000 ) ;
#96 = CC_DESIGN_DATE_AND_TIME_ASSIGNMENT ( #234, #226, ( #216 ) ) ;
#97 = DATE_AND_TIME ( #179, #77 ) ;
#98 = PERSON_AND_ORGANIZATION_ROLE ( 'design_supplier' ) ;
#99 = AXIS2_PLACEMENT_3D ( 'NONE', #94, #177, #9 ) ;
#100 = CARTESIAN_POINT ( 'NONE',  ( 2.600000000000000089, 3.184081677783118191E-16, 503.0000000000000000 ) ) ;
#101 = PERSON_AND_ORGANIZATION_ROLE ( 'classification_officer' ) ;
#102 = COORDINATED_UNIVERSAL_TIME_OFFSET ( 1, 0, .AHEAD. ) ;
#103 = EDGE_LOOP ( 'NONE', ( #67, #222 ) ) ;
#104 = APPLICATION_PROTOCOL_DEFINITION ( 'international standard', 'config_control_design', 1994, #60 ) ;
#105 = ORIENTED_EDGE ( 'NONE', *, *, #68, .F. ) ;
#106 = CC_DESIGN_APPROVAL ( #202, ( #201 ) ) ;
#107 = EDGE_LOOP ( 'NONE', ( #48, #208, #45, #62 ) ) ;
#108 = CYLINDRICAL_SURFACE ( 'NONE', #160, 2.600000000000000089 ) ;
#109 = PERSON_AND_ORGANIZATION ( #117, #57 ) ;
#110 = EDGE_CURVE ( 'NONE', #5, #230, #186, .T. ) ;
#111 = CARTESIAN_POINT ( 'NONE',  ( 0.000000000000000000, 0.000000000000000000, 3.000000000000000000 ) ) ;
#112 = CC_DESIGN_PERSON_AND_ORGANIZATION_ASSIGNMENT ( #41, #101, ( #201 ) ) ;
#113 = CARTESIAN_POINT ( 'NONE',  ( 0.000000000000000000, 0.000000000000000000, 503.0000000000000000 ) ) ;
#114 = LOCAL_TIME ( 19, 44, 40.00000000000000000, #102 ) ;
#115 = CARTESIAN_POINT ( 'NONE',  ( 0.000000000000000000, 0.000000000000000000, 3.000000000000000000 ) ) ;
#116 = AXIS2_PLACEMENT_3D ( 'NONE', #148, #211, #42 ) ;
#117 = PERSON ( 'NEURÈENÝ', 'NEURÈENÝ', 'NEURÈENÝ', ('NEURÈENÝ'), ('NEURÈENÝ'), ('NEURÈENÝ') ) ;
#118 = AXIS2_PLACEMENT_3D ( 'NONE', #172, #51, #87 ) ;
#119 = CIRCLE ( 'NONE', #46, 2.600000000000000089 ) ;
#120 = CC_DESIGN_DATE_AND_TIME_ASSIGNMENT ( #181, #23, ( #201 ) ) ;
#121 = APPROVAL_ROLE ( '' ) ;
#122 = APPROVAL_STATUS ( 'not_yet_approved' ) ;
#123 = ORIENTED_EDGE ( 'NONE', *, *, #240, .T. ) ;
#124 = PRODUCT_DEFINITION_FORMATION_WITH_SPECIFIED_SOURCE ( 'LIBOVOLNÝ', '', #32, .NOT_KNOWN. ) ;
#125 = CALENDAR_DATE ( 2022, 7, 7 ) ;
#126 = VERTEX_POINT ( 'NONE', #53 ) ;
#127 = ADVANCED_FACE ( 'NONE', ( #49 ), #151, .T. ) ;
#128 = DIRECTION ( 'NONE',  ( 0.000000000000000000, 0.000000000000000000, 1.000000000000000000 ) ) ;
#129 = EDGE_LOOP ( 'NONE', ( #27, #185, #64, #89 ) ) ;
#130 = CC_DESIGN_PERSON_AND_ORGANIZATION_ASSIGNMENT ( #4, #167, ( #32 ) ) ;
#131 = DATE_AND_TIME ( #47, #35 ) ;
#132 = ORIENTED_EDGE ( 'NONE', *, *, #68, .T. ) ;
#133 = CARTESIAN_POINT ( 'NONE',  ( 2.600000000000000089, 3.184081677783118191E-16, 503.0000000000000000 ) ) ;
#134 = CARTESIAN_POINT ( 'NONE',  ( 5.000000000000000000, 6.123233995736766282E-16, 0.000000000000000000 ) ) ;
#135 = PERSON_AND_ORGANIZATION ( #117, #57 ) ;
#136 = LINE ( 'NONE', #197, #162 ) ;
#137 = DIRECTION ( 'NONE',  ( -0.000000000000000000, -0.000000000000000000, -1.000000000000000000 ) ) ;
#138 = AXIS2_PLACEMENT_3D ( 'NONE', #115, #18, #195 ) ;
#139 = EDGE_CURVE ( 'NONE', #5, #251, #252, .T. ) ;
#140 =( GEOMETRIC_REPRESENTATION_CONTEXT ( 3 ) GLOBAL_UNCERTAINTY_ASSIGNED_CONTEXT ( ( #65 ) ) GLOBAL_UNIT_ASSIGNED_CONTEXT ( ( #10, #232, #50 ) ) REPRESENTATION_CONTEXT ( 'NONE', 'WORKASPACE' ) );
#141 = MANIFOLD_SOLID_BREP ( 'Pøidat vysunutím3', #58 ) ;
#142 = CC_DESIGN_PERSON_AND_ORGANIZATION_ASSIGNMENT ( #221, #98, ( #124 ) ) ;
#143 = PERSON_AND_ORGANIZATION_ROLE ( 'creator' ) ;
#144 = CARTESIAN_POINT ( 'NONE',  ( 0.000000000000000000, 0.000000000000000000, 0.000000000000000000 ) ) ;
#145 = ORIENTED_EDGE ( 'NONE', *, *, #178, .F. ) ;
#146 = APPROVAL_PERSON_ORGANIZATION ( #135, #38, #224 ) ;
#147 = CARTESIAN_POINT ( 'NONE',  ( 0.000000000000000000, 0.000000000000000000, 0.000000000000000000 ) ) ;
#148 = CARTESIAN_POINT ( 'NONE',  ( 0.000000000000000000, 0.000000000000000000, 3.000000000000000000 ) ) ;
#149 = APPLICATION_PROTOCOL_DEFINITION ( 'international standard', 'config_control_design', 1994, #200 ) ;
#150 = DIRECTION ( 'NONE',  ( 1.000000000000000000, 0.000000000000000000, -0.000000000000000000 ) ) ;
#151 = CYLINDRICAL_SURFACE ( 'NONE', #1, 5.000000000000000000 ) ;
#152 = CARTESIAN_POINT ( 'NONE',  ( 2.600000000000000089, 3.184081677783118191E-16, 3.000000000000000000 ) ) ;
#153 = DIRECTION ( 'NONE',  ( 0.000000000000000000, 0.000000000000000000, 1.000000000000000000 ) ) ;
#154 = DIRECTION ( 'NONE',  ( -0.000000000000000000, -0.000000000000000000, -1.000000000000000000 ) ) ;
#155 = DIRECTION ( 'NONE',  ( -0.000000000000000000, -0.000000000000000000, -1.000000000000000000 ) ) ;
#156 = DIRECTION ( 'NONE',  ( 1.000000000000000000, 0.000000000000000000, 0.000000000000000000 ) ) ;
#157 = LINE ( 'NONE', #73, #95 ) ;
#158 = AXIS2_PLACEMENT_3D ( 'NONE', #213, #128, #85 ) ;
#159 = EDGE_CURVE ( 'NONE', #230, #166, #136, .T. ) ;
#160 = AXIS2_PLACEMENT_3D ( 'NONE', #90, #233, #170 ) ;
#161 = COORDINATED_UNIVERSAL_TIME_OFFSET ( 1, 0, .AHEAD. ) ;
#162 = VECTOR ( 'NONE', #91, 1000.000000000000000 ) ;
#163 = SHAPE_DEFINITION_REPRESENTATION ( #227, #20 ) ;
#164 = APPROVAL ( #193, 'NEURÈENÝ' ) ;
#165 = EDGE_LOOP ( 'NONE', ( #228, #44 ) ) ;
#166 = VERTEX_POINT ( 'NONE', #236 ) ;
#167 = PERSON_AND_ORGANIZATION_ROLE ( 'design_owner' ) ;
#168 = VERTEX_POINT ( 'NONE', #17 ) ;
#169 = DIRECTION ( 'NONE',  ( 0.000000000000000000, 0.000000000000000000, 1.000000000000000000 ) ) ;
#170 = DIRECTION ( 'NONE',  ( -1.000000000000000000, 0.000000000000000000, 0.000000000000000000 ) ) ;
#171 = DIRECTION ( 'NONE',  ( 1.000000000000000000, 0.000000000000000000, 0.000000000000000000 ) ) ;
#172 = CARTESIAN_POINT ( 'NONE',  ( 0.000000000000000000, 0.000000000000000000, 3.000000000000000000 ) ) ;
#173 = FACE_OUTER_BOUND ( 'NONE', #83, .T. ) ;
#174 = LINE ( 'NONE', #93, #40 ) ;
#175 = CIRCLE ( 'NONE', #223, 5.000000000000000000 ) ;
#176 = DIRECTION ( 'NONE',  ( 0.000000000000000000, 0.000000000000000000, 1.000000000000000000 ) ) ;
#177 = DIRECTION ( 'NONE',  ( 0.000000000000000000, 0.000000000000000000, 1.000000000000000000 ) ) ;
#178 = EDGE_CURVE ( 'NONE', #168, #126, #70, .T. ) ;
#179 = CALENDAR_DATE ( 2022, 7, 7 ) ;
#180 = ADVANCED_FACE ( 'NONE', ( #255 ), #108, .T. ) ;
#181 = DATE_AND_TIME ( #80, #84 ) ;
#182 = ORIENTED_EDGE ( 'NONE', *, *, #78, .T. ) ;
#183 = CC_DESIGN_PERSON_AND_ORGANIZATION_ASSIGNMENT ( #52, #247, ( #216 ) ) ;
#184 = DATE_AND_TIME ( #125, #114 ) ;
#185 = ORIENTED_EDGE ( 'NONE', *, *, #28, .F. ) ;
#186 = CIRCLE ( 'NONE', #241, 2.600000000000000089 ) ;
#187 = MECHANICAL_CONTEXT ( 'NONE', #60, 'mechanical' ) ;
#188 = VERTEX_POINT ( 'NONE', #15 ) ;
#189 = DIRECTION ( 'NONE',  ( -0.000000000000000000, -0.000000000000000000, -1.000000000000000000 ) ) ;
#190 = CARTESIAN_POINT ( 'NONE',  ( 0.000000000000000000, 0.000000000000000000, 3.000000000000000000 ) ) ;
#191 = DIRECTION ( 'NONE',  ( 0.000000000000000000, 0.000000000000000000, 1.000000000000000000 ) ) ;
#192 = CYLINDRICAL_SURFACE ( 'NONE', #198, 2.600000000000000089 ) ;
#193 = APPROVAL_STATUS ( 'not_yet_approved' ) ;
#194 = PRODUCT_RELATED_PRODUCT_CATEGORY ( 'detail', '', ( #32 ) ) ;
#195 = DIRECTION ( 'NONE',  ( 1.000000000000000000, 0.000000000000000000, -0.000000000000000000 ) ) ;
#196 = DIRECTION ( 'NONE',  ( -0.000000000000000000, -0.000000000000000000, -1.000000000000000000 ) ) ;
#197 = CARTESIAN_POINT ( 'NONE',  ( -2.600000000000000089, 0.000000000000000000, 503.0000000000000000 ) ) ;
#198 = AXIS2_PLACEMENT_3D ( 'NONE', #113, #154, #12 ) ;
#199 = EDGE_CURVE ( 'NONE', #166, #251, #6, .T. ) ;
#200 = APPLICATION_CONTEXT ( 'configuration controlled 3d designs of mechanical parts and assemblies' ) ;
#201 = SECURITY_CLASSIFICATION ( '', '', #21 ) ;
#202 = APPROVAL ( #122, 'NEURÈENÝ' ) ;
#203 = ADVANCED_FACE ( 'NONE', ( #34, #76 ), #217, .T. ) ;
#204 = COORDINATED_UNIVERSAL_TIME_OFFSET ( 1, 0, .AHEAD. ) ;
#205 = CARTESIAN_POINT ( 'NONE',  ( 0.000000000000000000, 0.000000000000000000, 0.000000000000000000 ) ) ;
#206 = DIRECTION ( 'NONE',  ( 0.000000000000000000, 0.000000000000000000, 1.000000000000000000 ) ) ;
#207 = VERTEX_POINT ( 'NONE', #134 ) ;
#208 = ORIENTED_EDGE ( 'NONE', *, *, #139, .T. ) ;
#209 = AXIS2_PLACEMENT_3D ( 'NONE', #144, #169, #150 ) ;
#210 = APPROVAL_DATE_TIME ( #131, #38 ) ;
#211 = DIRECTION ( 'NONE',  ( 0.000000000000000000, 0.000000000000000000, 1.000000000000000000 ) ) ;
#212 = DIRECTION ( 'NONE',  ( 0.000000000000000000, 0.000000000000000000, 1.000000000000000000 ) ) ;
#213 = CARTESIAN_POINT ( 'NONE',  ( 0.000000000000000000, 0.000000000000000000, 0.000000000000000000 ) ) ;
#214 = DIRECTION ( 'NONE',  ( 0.000000000000000000, 0.000000000000000000, 1.000000000000000000 ) ) ;
#215 = DIRECTION ( 'NONE',  ( 1.000000000000000000, 0.000000000000000000, 0.000000000000000000 ) ) ;
#216 = PRODUCT_DEFINITION ( 'NEZNÁMÝ', '', #124, #88 ) ;
#217 = PLANE ( 'NONE',  #138 ) ;
#218 = AXIS2_PLACEMENT_3D ( 'NONE', #190, #155, #71 ) ;
#219 = ADVANCED_FACE ( 'NONE', ( #250 ), #69, .T. ) ;
#220 = CC_DESIGN_SECURITY_CLASSIFICATION ( #201, ( #124 ) ) ;
#221 = PERSON_AND_ORGANIZATION ( #117, #57 ) ;
#222 = ORIENTED_EDGE ( 'NONE', *, *, #54, .F. ) ;
#223 = AXIS2_PLACEMENT_3D ( 'NONE', #147, #206, #29 ) ;
#224 = APPROVAL_ROLE ( '' ) ;
#225 = ORIENTED_EDGE ( 'NONE', *, *, #19, .F. ) ;
#226 = DATE_TIME_ROLE ( 'creation_date' ) ;
#227 = PRODUCT_DEFINITION_SHAPE ( 'NONE', 'NONE',  #216 ) ;
#228 = ORIENTED_EDGE ( 'NONE', *, *, #178, .T. ) ;
#229 = EDGE_CURVE ( 'NONE', #251, #166, #2, .T. ) ;
#230 = VERTEX_POINT ( 'NONE', #231 ) ;
#231 = CARTESIAN_POINT ( 'NONE',  ( -2.600000000000000089, 0.000000000000000000, 503.0000000000000000 ) ) ;
#232 =( NAMED_UNIT ( * ) PLANE_ANGLE_UNIT ( ) SI_UNIT ( $, .RADIAN. ) );
#233 = DIRECTION ( 'NONE',  ( -0.000000000000000000, -0.000000000000000000, -1.000000000000000000 ) ) ;
#234 = DATE_AND_TIME ( #74, #239 ) ;
#235 = DIRECTION ( 'NONE',  ( -1.000000000000000000, 0.000000000000000000, 0.000000000000000000 ) ) ;
#236 = CARTESIAN_POINT ( 'NONE',  ( -2.600000000000000089, 0.000000000000000000, 3.000000000000000000 ) ) ;
#237 = CIRCLE ( 'NONE', #61, 5.000000000000000000 ) ;
#238 = APPROVAL_PERSON_ORGANIZATION ( #25, #202, #121 ) ;
#239 = LOCAL_TIME ( 19, 44, 40.00000000000000000, #7 ) ;
#240 = EDGE_CURVE ( 'NONE', #188, #207, #175, .T. ) ;
#241 = AXIS2_PLACEMENT_3D ( 'NONE', #36, #176, #156 ) ;
#242 = APPROVAL_DATE_TIME ( #97, #202 ) ;
#243 = ADVANCED_FACE ( 'NONE', ( #173 ), #66, .T. ) ;
#244 = EDGE_LOOP ( 'NONE', ( #72, #145, #132, #123 ) ) ;
#245 = EDGE_LOOP ( 'NONE', ( #24, #86 ) ) ;
#246 = APPROVAL_PERSON_ORGANIZATION ( #109, #164, #13 ) ;
#247 = PERSON_AND_ORGANIZATION_ROLE ( 'creator' ) ;
#248 = APPROVAL_STATUS ( 'not_yet_approved' ) ;
#249 = ORIENTED_EDGE ( 'NONE', *, *, #54, .T. ) ;
#250 = FACE_OUTER_BOUND ( 'NONE', #245, .T. ) ;
#251 = VERTEX_POINT ( 'NONE', #152 ) ;
#252 = LINE ( 'NONE', #133, #39 ) ;
#253 = APPROVAL_DATE_TIME ( #184, #164 ) ;
#254 = CARTESIAN_POINT ( 'NONE',  ( 0.000000000000000000, 0.000000000000000000, 3.000000000000000000 ) ) ;
#255 = FACE_OUTER_BOUND ( 'NONE', #129, .T. ) ;
ENDSEC;
END-ISO-10303-21;
