ISO-10303-21;
HEADER;
FILE_DESCRIPTION (( 'STEP AP203' ),
    '1' );
FILE_NAME ('c918.STEP',
    '2022-07-07T17:14:34',
    ( '' ),
    ( '' ),
    'SwSTEP 2.0',
    'SolidWorks 2019',
    '' );
FILE_SCHEMA (( 'CONFIG_CONTROL_DESIGN' ));
ENDSEC;

DATA;
#1 = AXIS2_PLACEMENT_3D ( 'NONE', #139, #227, #207 ) ;
#2 = PERSON_AND_ORGANIZATION_ROLE ( 'creator' ) ;
#3 = VECTOR ( 'NONE', #142, 1000.000000000000000 ) ;
#4 = CALENDAR_DATE ( 2022, 7, 7 ) ;
#5 = EDGE_CURVE ( 'NONE', #12, #108, #118, .T. ) ;
#6 = CIRCLE ( 'NONE', #195, 6.750000000000000000 ) ;
#7 = SECURITY_CLASSIFICATION_LEVEL ( 'unclassified' ) ;
#8 = ORIENTED_EDGE ( 'NONE', *, *, #99, .F. ) ;
#9 = PERSON_AND_ORGANIZATION ( #198, #20 ) ;
#10 = ORIENTED_EDGE ( 'NONE', *, *, #181, .T. ) ;
#11 = DIRECTION ( 'NONE',  ( 0.000000000000000000, 0.000000000000000000, 1.000000000000000000 ) ) ;
#12 = VERTEX_POINT ( 'NONE', #100 ) ;
#13 = LOCAL_TIME ( 19, 14, 34.00000000000000000, #151 ) ;
#14 = CARTESIAN_POINT ( 'NONE',  ( 0.000000000000000000, 0.000000000000000000, 0.000000000000000000 ) ) ;
#15 = DIRECTION ( 'NONE',  ( 0.000000000000000000, 0.000000000000000000, 1.000000000000000000 ) ) ;
#16 = ORIENTED_EDGE ( 'NONE', *, *, #82, .F. ) ;
#17 = CARTESIAN_POINT ( 'NONE',  ( -6.750000000000000000, 0.000000000000000000, 407.0000000000000000 ) ) ;
#18 = APPROVAL ( #223, 'NEURÈENÝ' ) ;
#19 = EDGE_CURVE ( 'NONE', #108, #12, #91, .T. ) ;
#20 = ORGANIZATION ( 'NEURÈENÝ', 'NEURÈENÝ', '' ) ;
#21 = VECTOR ( 'NONE', #211, 1000.000000000000000 ) ;
#22 = DATE_AND_TIME ( #219, #13 ) ;
#23 = ADVANCED_FACE ( 'NONE', ( #121 ), #235, .T. ) ;
#24 = ADVANCED_FACE ( 'NONE', ( #137, #177 ), #251, .T. ) ;
#25 = PERSON_AND_ORGANIZATION ( #198, #20 ) ;
#26 = APPROVAL_DATE_TIME ( #205, #185 ) ;
#27 = CYLINDRICAL_SURFACE ( 'NONE', #75, 6.750000000000000000 ) ;
#28 = ADVANCED_BREP_SHAPE_REPRESENTATION ( 'c918', ( #209, #43 ), #158 ) ;
#29 = EDGE_LOOP ( 'NONE', ( #245, #16 ) ) ;
#30 = LOCAL_TIME ( 19, 14, 34.00000000000000000, #150 ) ;
#31 = CARTESIAN_POINT ( 'NONE',  ( 0.000000000000000000, 0.000000000000000000, 407.0000000000000000 ) ) ;
#32 = CARTESIAN_POINT ( 'NONE',  ( 0.000000000000000000, 0.000000000000000000, 407.0000000000000000 ) ) ;
#33 = ORIENTED_EDGE ( 'NONE', *, *, #143, .F. ) ;
#34 = EDGE_CURVE ( 'NONE', #194, #94, #188, .T. ) ;
#35 = PRODUCT ( 'c918', 'c918', '', ( #69 ) ) ;
#36 = CYLINDRICAL_SURFACE ( 'NONE', #1, 11.00000000000000000 ) ;
#37 = DIRECTION ( 'NONE',  ( 0.000000000000000000, 0.000000000000000000, 1.000000000000000000 ) ) ;
#38 = CIRCLE ( 'NONE', #164, 6.750000000000000000 ) ;
#39 = VECTOR ( 'NONE', #115, 1000.000000000000000 ) ;
#40 = EDGE_LOOP ( 'NONE', ( #154, #116 ) ) ;
#41 = EDGE_CURVE ( 'NONE', #12, #49, #162, .T. ) ;
#42 = DIRECTION ( 'NONE',  ( 1.000000000000000000, 0.000000000000000000, 0.000000000000000000 ) ) ;
#43 = AXIS2_PLACEMENT_3D ( 'NONE', #89, #168, #183 ) ;
#44 = PRODUCT_DEFINITION_FORMATION_WITH_SPECIFIED_SOURCE ( 'LIBOVOLNÝ', '', #35, .NOT_KNOWN. ) ;
#45 = PRODUCT_RELATED_PRODUCT_CATEGORY ( 'detail', '', ( #35 ) ) ;
#46 = CC_DESIGN_APPROVAL ( #185, ( #149 ) ) ;
#47 = ORIENTED_EDGE ( 'NONE', *, *, #34, .T. ) ;
#48 = PERSON_AND_ORGANIZATION ( #198, #20 ) ;
#49 = VERTEX_POINT ( 'NONE', #214 ) ;
#50 = EDGE_CURVE ( 'NONE', #94, #194, #38, .T. ) ;
#51 = DATE_AND_TIME ( #146, #30 ) ;
#52 = DIRECTION ( 'NONE',  ( 1.000000000000000000, 0.000000000000000000, 0.000000000000000000 ) ) ;
#53 = EDGE_LOOP ( 'NONE', ( #228, #33, #213, #184 ) ) ;
#54 = DIRECTION ( 'NONE',  ( 1.000000000000000000, 0.000000000000000000, 0.000000000000000000 ) ) ;
#55 = LOCAL_TIME ( 19, 14, 34.00000000000000000, #187 ) ;
#56 = CARTESIAN_POINT ( 'NONE',  ( 0.000000000000000000, 0.000000000000000000, 0.000000000000000000 ) ) ;
#57 = VERTEX_POINT ( 'NONE', #17 ) ;
#58 = CARTESIAN_POINT ( 'NONE',  ( 0.000000000000000000, 0.000000000000000000, 7.000000000000000000 ) ) ;
#59 = CARTESIAN_POINT ( 'NONE',  ( 0.000000000000000000, 0.000000000000000000, 7.000000000000000000 ) ) ;
#60 = CARTESIAN_POINT ( 'NONE',  ( 0.000000000000000000, 0.000000000000000000, 7.000000000000000000 ) ) ;
#61 = PRODUCT_DEFINITION ( 'NEZNÁMÝ', '', #44, #88 ) ;
#62 = PERSON_AND_ORGANIZATION ( #198, #20 ) ;
#63 = AXIS2_PLACEMENT_3D ( 'NONE', #56, #160, #52 ) ;
#64 = EDGE_CURVE ( 'NONE', #78, #194, #102, .T. ) ;
#65 = APPROVAL_DATE_TIME ( #221, #113 ) ;
#66 = APPROVAL_ROLE ( '' ) ;
#67 = CC_DESIGN_APPROVAL ( #18, ( #44 ) ) ;
#68 = APPROVAL_STATUS ( 'not_yet_approved' ) ;
#69 = MECHANICAL_CONTEXT ( 'NONE', #141, 'mechanical' ) ;
#70 = FACE_OUTER_BOUND ( 'NONE', #53, .T. ) ;
#71 = DIRECTION ( 'NONE',  ( -1.000000000000000000, 0.000000000000000000, 0.000000000000000000 ) ) ;
#72 = VERTEX_POINT ( 'NONE', #80 ) ;
#73 = DIRECTION ( 'NONE',  ( 0.000000000000000000, 0.000000000000000000, 1.000000000000000000 ) ) ;
#74 = DIRECTION ( 'NONE',  ( 1.000000000000000000, 0.000000000000000000, 0.000000000000000000 ) ) ;
#75 = AXIS2_PLACEMENT_3D ( 'NONE', #250, #132, #71 ) ;
#76 =( LENGTH_UNIT ( ) NAMED_UNIT ( * ) SI_UNIT ( .MILLI., .METRE. ) );
#77 = DIRECTION ( 'NONE',  ( 0.000000000000000000, 0.000000000000000000, 1.000000000000000000 ) ) ;
#78 = VERTEX_POINT ( 'NONE', #165 ) ;
#79 = AXIS2_PLACEMENT_3D ( 'NONE', #60, #230, #98 ) ;
#80 = CARTESIAN_POINT ( 'NONE',  ( -11.00000000000000000, 0.000000000000000000, 0.000000000000000000 ) ) ;
#81 = APPROVAL_PERSON_ORGANIZATION ( #127, #18, #125 ) ;
#82 = EDGE_CURVE ( 'NONE', #49, #72, #103, .T. ) ;
#83 = AXIS2_PLACEMENT_3D ( 'NONE', #120, #77, #199 ) ;
#84 = CALENDAR_DATE ( 2022, 7, 7 ) ;
#85 = AXIS2_PLACEMENT_3D ( 'NONE', #59, #37, #178 ) ;
#86 = PERSON_AND_ORGANIZATION_ROLE ( 'design_owner' ) ;
#87 = COORDINATED_UNIVERSAL_TIME_OFFSET ( 1, 0, .AHEAD. ) ;
#88 = DESIGN_CONTEXT ( 'detailed design', #202, 'design' ) ;
#89 = CARTESIAN_POINT ( 'NONE',  ( 0.000000000000000000, 0.000000000000000000, 0.000000000000000000 ) ) ;
#90 = ORIENTED_EDGE ( 'NONE', *, *, #34, .F. ) ;
#91 = CIRCLE ( 'NONE', #193, 11.00000000000000000 ) ;
#92 = DATE_TIME_ROLE ( 'creation_date' ) ;
#93 = DIRECTION ( 'NONE',  ( -0.000000000000000000, -0.000000000000000000, -1.000000000000000000 ) ) ;
#94 = VERTEX_POINT ( 'NONE', #159 ) ;
#95 = EDGE_CURVE ( 'NONE', #72, #49, #179, .T. ) ;
#96 = LINE ( 'NONE', #229, #39 ) ;
#97 = ORIENTED_EDGE ( 'NONE', *, *, #5, .F. ) ;
#98 = DIRECTION ( 'NONE',  ( 1.000000000000000000, 0.000000000000000000, 0.000000000000000000 ) ) ;
#99 = EDGE_CURVE ( 'NONE', #78, #57, #231, .T. ) ;
#100 = CARTESIAN_POINT ( 'NONE',  ( 11.00000000000000000, 1.347111479062088405E-15, 7.000000000000000000 ) ) ;
#101 = UNCERTAINTY_MEASURE_WITH_UNIT (LENGTH_MEASURE( 1.000000000000000082E-05 ), #76, 'distance_accuracy_value', 'NONE');
#102 = LINE ( 'NONE', #247, #180 ) ;
#103 = CIRCLE ( 'NONE', #147, 11.00000000000000000 ) ;
#104 = CC_DESIGN_PERSON_AND_ORGANIZATION_ASSIGNMENT ( #204, #182, ( #44 ) ) ;
#105 = PERSON_AND_ORGANIZATION ( #198, #20 ) ;
#106 = APPROVAL_ROLE ( '' ) ;
#107 = PERSON_AND_ORGANIZATION_ROLE ( 'design_supplier' ) ;
#108 = VERTEX_POINT ( 'NONE', #189 ) ;
#109 = AXIS2_PLACEMENT_3D ( 'NONE', #232, #93, #172 ) ;
#110 = SHAPE_DEFINITION_REPRESENTATION ( #126, #28 ) ;
#111 = EDGE_LOOP ( 'NONE', ( #224, #156, #10, #173 ) ) ;
#112 = DIRECTION ( 'NONE',  ( 1.000000000000000000, 0.000000000000000000, -0.000000000000000000 ) ) ;
#113 = APPROVAL ( #68, 'NEURÈENÝ' ) ;
#114 = FACE_OUTER_BOUND ( 'NONE', #163, .T. ) ;
#115 = DIRECTION ( 'NONE',  ( -0.000000000000000000, -0.000000000000000000, -1.000000000000000000 ) ) ;
#116 = ORIENTED_EDGE ( 'NONE', *, *, #99, .T. ) ;
#117 = CC_DESIGN_DATE_AND_TIME_ASSIGNMENT ( #22, #222, ( #149 ) ) ;
#118 = CIRCLE ( 'NONE', #79, 11.00000000000000000 ) ;
#119 = DIRECTION ( 'NONE',  ( -0.000000000000000000, -0.000000000000000000, -1.000000000000000000 ) ) ;
#120 = CARTESIAN_POINT ( 'NONE',  ( 0.000000000000000000, 0.000000000000000000, 7.000000000000000000 ) ) ;
#121 = FACE_OUTER_BOUND ( 'NONE', #40, .T. ) ;
#122 = CARTESIAN_POINT ( 'NONE',  ( 0.000000000000000000, 0.000000000000000000, 407.0000000000000000 ) ) ;
#123 = AXIS2_PLACEMENT_3D ( 'NONE', #191, #119, #241 ) ;
#124 = CC_DESIGN_APPROVAL ( #113, ( #61 ) ) ;
#125 = APPROVAL_ROLE ( '' ) ;
#126 = PRODUCT_DEFINITION_SHAPE ( 'NONE', 'NONE',  #61 ) ;
#127 = PERSON_AND_ORGANIZATION ( #198, #20 ) ;
#128 = ORIENTED_EDGE ( 'NONE', *, *, #5, .T. ) ;
#129 = APPROVAL_STATUS ( 'not_yet_approved' ) ;
#130 = EDGE_LOOP ( 'NONE', ( #206, #128 ) ) ;
#131 = EDGE_LOOP ( 'NONE', ( #8, #190, #47, #226 ) ) ;
#132 = DIRECTION ( 'NONE',  ( -0.000000000000000000, -0.000000000000000000, -1.000000000000000000 ) ) ;
#133 = ORIENTED_EDGE ( 'NONE', *, *, #181, .F. ) ;
#134 = AXIS2_PLACEMENT_3D ( 'NONE', #122, #216, #176 ) ;
#135 = FACE_OUTER_BOUND ( 'NONE', #131, .T. ) ;
#136 = DIRECTION ( 'NONE',  ( 1.000000000000000000, 0.000000000000000000, 0.000000000000000000 ) ) ;
#137 = FACE_BOUND ( 'NONE', #186, .T. ) ;
#138 = ADVANCED_FACE ( 'NONE', ( #114 ), #175, .T. ) ;
#139 = CARTESIAN_POINT ( 'NONE',  ( 0.000000000000000000, 0.000000000000000000, 7.000000000000000000 ) ) ;
#140 = DIRECTION ( 'NONE',  ( 1.000000000000000000, 0.000000000000000000, 0.000000000000000000 ) ) ;
#141 = APPLICATION_CONTEXT ( 'configuration controlled 3d designs of mechanical parts and assemblies' ) ;
#142 = DIRECTION ( 'NONE',  ( -0.000000000000000000, -0.000000000000000000, -1.000000000000000000 ) ) ;
#143 = EDGE_CURVE ( 'NONE', #57, #78, #6, .T. ) ;
#144 = DIRECTION ( 'NONE',  ( 0.000000000000000000, 0.000000000000000000, 1.000000000000000000 ) ) ;
#145 = LOCAL_TIME ( 19, 14, 34.00000000000000000, #87 ) ;
#146 = CALENDAR_DATE ( 2022, 7, 7 ) ;
#147 = AXIS2_PLACEMENT_3D ( 'NONE', #236, #144, #74 ) ;
#148 = APPLICATION_PROTOCOL_DEFINITION ( 'international standard', 'config_control_design', 1994, #141 ) ;
#149 = SECURITY_CLASSIFICATION ( '', '', #7 ) ;
#150 = COORDINATED_UNIVERSAL_TIME_OFFSET ( 1, 0, .AHEAD. ) ;
#151 = COORDINATED_UNIVERSAL_TIME_OFFSET ( 1, 0, .AHEAD. ) ;
#152 = PERSON_AND_ORGANIZATION_ROLE ( 'classification_officer' ) ;
#153 = ORIENTED_EDGE ( 'NONE', *, *, #82, .T. ) ;
#154 = ORIENTED_EDGE ( 'NONE', *, *, #143, .T. ) ;
#155 = CARTESIAN_POINT ( 'NONE',  ( -11.00000000000000000, 0.000000000000000000, 7.000000000000000000 ) ) ;
#156 = ORIENTED_EDGE ( 'NONE', *, *, #19, .F. ) ;
#157 = CARTESIAN_POINT ( 'NONE',  ( 6.750000000000000000, 8.266365894244634333E-16, 7.000000000000000000 ) ) ;
#158 =( GEOMETRIC_REPRESENTATION_CONTEXT ( 3 ) GLOBAL_UNCERTAINTY_ASSIGNED_CONTEXT ( ( #101 ) ) GLOBAL_UNIT_ASSIGNED_CONTEXT ( ( #76, #170, #203 ) ) REPRESENTATION_CONTEXT ( 'NONE', 'WORKASPACE' ) );
#159 = CARTESIAN_POINT ( 'NONE',  ( -6.750000000000000000, 0.000000000000000000, 7.000000000000000000 ) ) ;
#160 = DIRECTION ( 'NONE',  ( 0.000000000000000000, 0.000000000000000000, 1.000000000000000000 ) ) ;
#161 = CC_DESIGN_PERSON_AND_ORGANIZATION_ASSIGNMENT ( #62, #152, ( #149 ) ) ;
#162 = LINE ( 'NONE', #233, #3 ) ;
#163 = EDGE_LOOP ( 'NONE', ( #97, #192, #153, #133 ) ) ;
#164 = AXIS2_PLACEMENT_3D ( 'NONE', #58, #197, #140 ) ;
#165 = CARTESIAN_POINT ( 'NONE',  ( 6.750000000000000000, 8.266365894244634333E-16, 407.0000000000000000 ) ) ;
#166 = LOCAL_TIME ( 19, 14, 34.00000000000000000, #220 ) ;
#167 = ADVANCED_FACE ( 'NONE', ( #171 ), #244, .F. ) ;
#168 = DIRECTION ( 'NONE',  ( 0.000000000000000000, 0.000000000000000000, 1.000000000000000000 ) ) ;
#169 = PERSON_AND_ORGANIZATION ( #198, #20 ) ;
#170 =( NAMED_UNIT ( * ) PLANE_ANGLE_UNIT ( ) SI_UNIT ( $, .RADIAN. ) );
#171 = FACE_OUTER_BOUND ( 'NONE', #29, .T. ) ;
#172 = DIRECTION ( 'NONE',  ( -1.000000000000000000, 0.000000000000000000, 0.000000000000000000 ) ) ;
#173 = ORIENTED_EDGE ( 'NONE', *, *, #95, .T. ) ;
#174 = CC_DESIGN_PERSON_AND_ORGANIZATION_ASSIGNMENT ( #105, #86, ( #35 ) ) ;
#175 = CYLINDRICAL_SURFACE ( 'NONE', #109, 11.00000000000000000 ) ;
#176 = DIRECTION ( 'NONE',  ( 1.000000000000000000, 0.000000000000000000, -0.000000000000000000 ) ) ;
#177 = FACE_OUTER_BOUND ( 'NONE', #130, .T. ) ;
#178 = DIRECTION ( 'NONE',  ( 1.000000000000000000, 0.000000000000000000, 0.000000000000000000 ) ) ;
#179 = CIRCLE ( 'NONE', #63, 11.00000000000000000 ) ;
#180 = VECTOR ( 'NONE', #254, 1000.000000000000000 ) ;
#181 = EDGE_CURVE ( 'NONE', #108, #72, #225, .T. ) ;
#182 = PERSON_AND_ORGANIZATION_ROLE ( 'creator' ) ;
#183 = DIRECTION ( 'NONE',  ( 1.000000000000000000, 0.000000000000000000, 0.000000000000000000 ) ) ;
#184 = ORIENTED_EDGE ( 'NONE', *, *, #50, .T. ) ;
#185 = APPROVAL ( #129, 'NEURÈENÝ' ) ;
#186 = EDGE_LOOP ( 'NONE', ( #208, #90 ) ) ;
#187 = COORDINATED_UNIVERSAL_TIME_OFFSET ( 1, 0, .AHEAD. ) ;
#188 = CIRCLE ( 'NONE', #85, 6.750000000000000000 ) ;
#189 = CARTESIAN_POINT ( 'NONE',  ( -11.00000000000000000, 0.000000000000000000, 7.000000000000000000 ) ) ;
#190 = ORIENTED_EDGE ( 'NONE', *, *, #64, .T. ) ;
#191 = CARTESIAN_POINT ( 'NONE',  ( 0.000000000000000000, 0.000000000000000000, 407.0000000000000000 ) ) ;
#192 = ORIENTED_EDGE ( 'NONE', *, *, #41, .T. ) ;
#193 = AXIS2_PLACEMENT_3D ( 'NONE', #253, #212, #42 ) ;
#194 = VERTEX_POINT ( 'NONE', #157 ) ;
#195 = AXIS2_PLACEMENT_3D ( 'NONE', #31, #11, #136 ) ;
#196 = ADVANCED_FACE ( 'NONE', ( #70 ), #27, .T. ) ;
#197 = DIRECTION ( 'NONE',  ( 0.000000000000000000, 0.000000000000000000, 1.000000000000000000 ) ) ;
#198 = PERSON ( 'NEURÈENÝ', 'NEURÈENÝ', 'NEURÈENÝ', ('NEURÈENÝ'), ('NEURÈENÝ'), ('NEURÈENÝ') ) ;
#199 = DIRECTION ( 'NONE',  ( 1.000000000000000000, 0.000000000000000000, -0.000000000000000000 ) ) ;
#200 = APPROVAL_PERSON_ORGANIZATION ( #9, #113, #66 ) ;
#201 = CC_DESIGN_DATE_AND_TIME_ASSIGNMENT ( #240, #92, ( #61 ) ) ;
#202 = APPLICATION_CONTEXT ( 'configuration controlled 3d designs of mechanical parts and assemblies' ) ;
#203 =( NAMED_UNIT ( * ) SI_UNIT ( $, .STERADIAN. ) SOLID_ANGLE_UNIT ( ) );
#204 = PERSON_AND_ORGANIZATION ( #198, #20 ) ;
#205 = DATE_AND_TIME ( #4, #55 ) ;
#206 = ORIENTED_EDGE ( 'NONE', *, *, #19, .T. ) ;
#207 = DIRECTION ( 'NONE',  ( -1.000000000000000000, 0.000000000000000000, 0.000000000000000000 ) ) ;
#208 = ORIENTED_EDGE ( 'NONE', *, *, #50, .F. ) ;
#209 = MANIFOLD_SOLID_BREP ( 'Pøidat vysunutím3', #248 ) ;
#210 = CYLINDRICAL_SURFACE ( 'NONE', #123, 6.750000000000000000 ) ;
#211 = DIRECTION ( 'NONE',  ( -0.000000000000000000, -0.000000000000000000, -1.000000000000000000 ) ) ;
#212 = DIRECTION ( 'NONE',  ( 0.000000000000000000, 0.000000000000000000, 1.000000000000000000 ) ) ;
#213 = ORIENTED_EDGE ( 'NONE', *, *, #242, .T. ) ;
#214 = CARTESIAN_POINT ( 'NONE',  ( 11.00000000000000000, 1.347111479062088405E-15, 0.000000000000000000 ) ) ;
#215 = APPROVAL_PERSON_ORGANIZATION ( #48, #185, #106 ) ;
#216 = DIRECTION ( 'NONE',  ( 0.000000000000000000, 0.000000000000000000, 1.000000000000000000 ) ) ;
#217 = ADVANCED_FACE ( 'NONE', ( #246 ), #36, .T. ) ;
#218 = AXIS2_PLACEMENT_3D ( 'NONE', #32, #73, #54 ) ;
#219 = CALENDAR_DATE ( 2022, 7, 7 ) ;
#220 = COORDINATED_UNIVERSAL_TIME_OFFSET ( 1, 0, .AHEAD. ) ;
#221 = DATE_AND_TIME ( #238, #145 ) ;
#222 = DATE_TIME_ROLE ( 'classification_date' ) ;
#223 = APPROVAL_STATUS ( 'not_yet_approved' ) ;
#224 = ORIENTED_EDGE ( 'NONE', *, *, #41, .F. ) ;
#225 = LINE ( 'NONE', #155, #21 ) ;
#226 = ORIENTED_EDGE ( 'NONE', *, *, #242, .F. ) ;
#227 = DIRECTION ( 'NONE',  ( -0.000000000000000000, -0.000000000000000000, -1.000000000000000000 ) ) ;
#228 = ORIENTED_EDGE ( 'NONE', *, *, #64, .F. ) ;
#229 = CARTESIAN_POINT ( 'NONE',  ( -6.750000000000000000, 0.000000000000000000, 407.0000000000000000 ) ) ;
#230 = DIRECTION ( 'NONE',  ( 0.000000000000000000, 0.000000000000000000, 1.000000000000000000 ) ) ;
#231 = CIRCLE ( 'NONE', #218, 6.750000000000000000 ) ;
#232 = CARTESIAN_POINT ( 'NONE',  ( 0.000000000000000000, 0.000000000000000000, 7.000000000000000000 ) ) ;
#233 = CARTESIAN_POINT ( 'NONE',  ( 11.00000000000000000, 1.347111479062088405E-15, 7.000000000000000000 ) ) ;
#234 = ADVANCED_FACE ( 'NONE', ( #135 ), #210, .T. ) ;
#235 = PLANE ( 'NONE',  #134 ) ;
#236 = CARTESIAN_POINT ( 'NONE',  ( 0.000000000000000000, 0.000000000000000000, 0.000000000000000000 ) ) ;
#237 = APPROVAL_DATE_TIME ( #51, #18 ) ;
#238 = CALENDAR_DATE ( 2022, 7, 7 ) ;
#239 = APPLICATION_PROTOCOL_DEFINITION ( 'international standard', 'config_control_design', 1994, #202 ) ;
#240 = DATE_AND_TIME ( #84, #166 ) ;
#241 = DIRECTION ( 'NONE',  ( -1.000000000000000000, 0.000000000000000000, 0.000000000000000000 ) ) ;
#242 = EDGE_CURVE ( 'NONE', #57, #94, #96, .T. ) ;
#243 = CC_DESIGN_SECURITY_CLASSIFICATION ( #149, ( #44 ) ) ;
#244 = PLANE ( 'NONE',  #252 ) ;
#245 = ORIENTED_EDGE ( 'NONE', *, *, #95, .F. ) ;
#246 = FACE_OUTER_BOUND ( 'NONE', #111, .T. ) ;
#247 = CARTESIAN_POINT ( 'NONE',  ( 6.750000000000000000, 8.266365894244634333E-16, 407.0000000000000000 ) ) ;
#248 = CLOSED_SHELL ( 'NONE', ( #234, #138, #217, #24, #167, #196, #23 ) ) ;
#249 = CC_DESIGN_PERSON_AND_ORGANIZATION_ASSIGNMENT ( #169, #2, ( #61 ) ) ;
#250 = CARTESIAN_POINT ( 'NONE',  ( 0.000000000000000000, 0.000000000000000000, 407.0000000000000000 ) ) ;
#251 = PLANE ( 'NONE',  #83 ) ;
#252 = AXIS2_PLACEMENT_3D ( 'NONE', #14, #15, #112 ) ;
#253 = CARTESIAN_POINT ( 'NONE',  ( 0.000000000000000000, 0.000000000000000000, 7.000000000000000000 ) ) ;
#254 = DIRECTION ( 'NONE',  ( -0.000000000000000000, -0.000000000000000000, -1.000000000000000000 ) ) ;
#255 = CC_DESIGN_PERSON_AND_ORGANIZATION_ASSIGNMENT ( #25, #107, ( #44 ) ) ;
ENDSEC;
END-ISO-10303-21;
