ISO-10303-21;
HEADER;
FILE_DESCRIPTION (( 'STEP AP203' ),
    '1' );
FILE_NAME ('b438.STEP',
    '2022-07-07T17:21:41',
    ( '' ),
    ( '' ),
    'SwSTEP 2.0',
    'SolidWorks 2019',
    '' );
FILE_SCHEMA (( 'CONFIG_CONTROL_DESIGN' ));
ENDSEC;

DATA;
#1 = EDGE_CURVE ( 'NONE', #246, #153, #191, .T. ) ;
#2 = AXIS2_PLACEMENT_3D ( 'NONE', #194, #213, #233 ) ;
#3 = AXIS2_PLACEMENT_3D ( 'NONE', #174, #170, #95 ) ;
#4 = DATE_AND_TIME ( #30, #43 ) ;
#5 = ADVANCED_BREP_SHAPE_REPRESENTATION ( 'b438', ( #60, #159 ), #32 ) ;
#6 = PERSON_AND_ORGANIZATION ( #36, #197 ) ;
#7 = CIRCLE ( 'NONE', #122, 9.000000000000000000 ) ;
#8 = APPROVAL_PERSON_ORGANIZATION ( #51, #199, #129 ) ;
#9 = COORDINATED_UNIVERSAL_TIME_OFFSET ( 1, 0, .AHEAD. ) ;
#10 = DIRECTION ( 'NONE',  ( 1.000000000000000000, 0.000000000000000000, 0.000000000000000000 ) ) ;
#11 = APPROVAL_ROLE ( '' ) ;
#12 = DIRECTION ( 'NONE',  ( 1.000000000000000000, 0.000000000000000000, 0.000000000000000000 ) ) ;
#13 = DIRECTION ( 'NONE',  ( 0.000000000000000000, 0.000000000000000000, 1.000000000000000000 ) ) ;
#14 = ORIENTED_EDGE ( 'NONE', *, *, #123, .F. ) ;
#15 = CC_DESIGN_PERSON_AND_ORGANIZATION_ASSIGNMENT ( #6, #126, ( #231 ) ) ;
#16 = CARTESIAN_POINT ( 'NONE',  ( -9.000000000000000000, 0.000000000000000000, 7.000000000000000000 ) ) ;
#17 = CARTESIAN_POINT ( 'NONE',  ( 0.000000000000000000, 0.000000000000000000, 7.000000000000000000 ) ) ;
#18 = ORIENTED_EDGE ( 'NONE', *, *, #218, .T. ) ;
#19 = CARTESIAN_POINT ( 'NONE',  ( 5.750000000000000000, 7.041719095097280880E-16, 107.0000000000000142 ) ) ;
#20 = UNCERTAINTY_MEASURE_WITH_UNIT (LENGTH_MEASURE( 1.000000000000000082E-05 ), #181, 'distance_accuracy_value', 'NONE');
#21 = DIRECTION ( 'NONE',  ( -0.000000000000000000, -0.000000000000000000, -1.000000000000000000 ) ) ;
#22 = VECTOR ( 'NONE', #56, 1000.000000000000000 ) ;
#23 = ORIENTED_EDGE ( 'NONE', *, *, #29, .F. ) ;
#24 = ORIENTED_EDGE ( 'NONE', *, *, #59, .T. ) ;
#25 = VERTEX_POINT ( 'NONE', #232 ) ;
#26 = DATE_AND_TIME ( #143, #54 ) ;
#27 = CC_DESIGN_PERSON_AND_ORGANIZATION_ASSIGNMENT ( #224, #104, ( #120 ) ) ;
#28 = FACE_OUTER_BOUND ( 'NONE', #173, .T. ) ;
#29 = EDGE_CURVE ( 'NONE', #48, #91, #61, .T. ) ;
#30 = CALENDAR_DATE ( 2022, 7, 7 ) ;
#31 = CARTESIAN_POINT ( 'NONE',  ( 0.000000000000000000, 0.000000000000000000, 7.000000000000000000 ) ) ;
#32 =( GEOMETRIC_REPRESENTATION_CONTEXT ( 3 ) GLOBAL_UNCERTAINTY_ASSIGNED_CONTEXT ( ( #20 ) ) GLOBAL_UNIT_ASSIGNED_CONTEXT ( ( #181, #69, #185 ) ) REPRESENTATION_CONTEXT ( 'NONE', 'WORKASPACE' ) );
#33 = DIRECTION ( 'NONE',  ( 1.000000000000000000, 0.000000000000000000, 0.000000000000000000 ) ) ;
#34 = CARTESIAN_POINT ( 'NONE',  ( 5.750000000000000000, 7.041719095097280880E-16, 7.000000000000000000 ) ) ;
#35 = CARTESIAN_POINT ( 'NONE',  ( -5.750000000000000000, 0.000000000000000000, 7.000000000000000000 ) ) ;
#36 = PERSON ( 'NEURÈENÝ', 'NEURÈENÝ', 'NEURÈENÝ', ('NEURÈENÝ'), ('NEURÈENÝ'), ('NEURÈENÝ') ) ;
#37 = DIRECTION ( 'NONE',  ( -0.000000000000000000, -0.000000000000000000, -1.000000000000000000 ) ) ;
#38 = ORIENTED_EDGE ( 'NONE', *, *, #183, .F. ) ;
#39 = LINE ( 'NONE', #192, #22 ) ;
#40 = CARTESIAN_POINT ( 'NONE',  ( 0.000000000000000000, 0.000000000000000000, 107.0000000000000142 ) ) ;
#41 = CC_DESIGN_DATE_AND_TIME_ASSIGNMENT ( #85, #164, ( #156 ) ) ;
#42 = AXIS2_PLACEMENT_3D ( 'NONE', #205, #149, #108 ) ;
#43 = LOCAL_TIME ( 19, 21, 41.00000000000000000, #223 ) ;
#44 = VERTEX_POINT ( 'NONE', #35 ) ;
#45 = SHAPE_DEFINITION_REPRESENTATION ( #97, #5 ) ;
#46 = LOCAL_TIME ( 19, 21, 41.00000000000000000, #142 ) ;
#47 = DATE_AND_TIME ( #248, #135 ) ;
#48 = VERTEX_POINT ( 'NONE', #19 ) ;
#49 = CARTESIAN_POINT ( 'NONE',  ( 0.000000000000000000, 0.000000000000000000, 7.000000000000000000 ) ) ;
#50 = PLANE ( 'NONE',  #196 ) ;
#51 = PERSON_AND_ORGANIZATION ( #36, #197 ) ;
#52 = CARTESIAN_POINT ( 'NONE',  ( 0.000000000000000000, 0.000000000000000000, 107.0000000000000142 ) ) ;
#53 = AXIS2_PLACEMENT_3D ( 'NONE', #208, #109, #228 ) ;
#54 = LOCAL_TIME ( 19, 21, 41.00000000000000000, #64 ) ;
#55 = CARTESIAN_POINT ( 'NONE',  ( 5.750000000000000000, 7.041719095097280880E-16, 107.0000000000000142 ) ) ;
#56 = DIRECTION ( 'NONE',  ( -0.000000000000000000, -0.000000000000000000, -1.000000000000000000 ) ) ;
#57 = FACE_OUTER_BOUND ( 'NONE', #140, .T. ) ;
#58 = CARTESIAN_POINT ( 'NONE',  ( 9.000000000000000000, 1.102182119232617714E-15, 7.000000000000000000 ) ) ;
#59 = EDGE_CURVE ( 'NONE', #44, #184, #226, .T. ) ;
#60 = MANIFOLD_SOLID_BREP ( 'Pøidat vysunutím3', #78 ) ;
#61 = CIRCLE ( 'NONE', #206, 5.750000000000000000 ) ;
#62 = ORIENTED_EDGE ( 'NONE', *, *, #218, .F. ) ;
#63 = EDGE_LOOP ( 'NONE', ( #134, #152 ) ) ;
#64 = COORDINATED_UNIVERSAL_TIME_OFFSET ( 1, 0, .AHEAD. ) ;
#65 = COORDINATED_UNIVERSAL_TIME_OFFSET ( 1, 0, .AHEAD. ) ;
#66 = EDGE_LOOP ( 'NONE', ( #87, #14, #141, #24 ) ) ;
#67 = MECHANICAL_CONTEXT ( 'NONE', #217, 'mechanical' ) ;
#68 = DATE_TIME_ROLE ( 'creation_date' ) ;
#69 =( NAMED_UNIT ( * ) PLANE_ANGLE_UNIT ( ) SI_UNIT ( $, .RADIAN. ) );
#70 = ADVANCED_FACE ( 'NONE', ( #169, #57 ), #254, .T. ) ;
#71 = APPROVAL_STATUS ( 'not_yet_approved' ) ;
#72 = LINE ( 'NONE', #55, #154 ) ;
#73 = CARTESIAN_POINT ( 'NONE',  ( 0.000000000000000000, 0.000000000000000000, 107.0000000000000142 ) ) ;
#74 = DIRECTION ( 'NONE',  ( -1.000000000000000000, 0.000000000000000000, 0.000000000000000000 ) ) ;
#75 = ORIENTED_EDGE ( 'NONE', *, *, #101, .F. ) ;
#76 = APPLICATION_CONTEXT ( 'configuration controlled 3d designs of mechanical parts and assemblies' ) ;
#77 = FACE_OUTER_BOUND ( 'NONE', #251, .T. ) ;
#78 = CLOSED_SHELL ( 'NONE', ( #82, #112, #178, #70, #118, #81, #148 ) ) ;
#79 = DIRECTION ( 'NONE',  ( 0.000000000000000000, 0.000000000000000000, 1.000000000000000000 ) ) ;
#80 = CC_DESIGN_SECURITY_CLASSIFICATION ( #156, ( #120 ) ) ;
#81 = ADVANCED_FACE ( 'NONE', ( #250 ), #253, .T. ) ;
#82 = ADVANCED_FACE ( 'NONE', ( #150 ), #151, .T. ) ;
#83 = PERSON_AND_ORGANIZATION ( #36, #197 ) ;
#84 = PERSON_AND_ORGANIZATION_ROLE ( 'design_supplier' ) ;
#85 = DATE_AND_TIME ( #179, #241 ) ;
#86 = AXIS2_PLACEMENT_3D ( 'NONE', #49, #189, #125 ) ;
#87 = ORIENTED_EDGE ( 'NONE', *, *, #214, .F. ) ;
#88 = PERSON_AND_ORGANIZATION ( #36, #197 ) ;
#89 = CARTESIAN_POINT ( 'NONE',  ( -9.000000000000000000, 0.000000000000000000, 0.000000000000000000 ) ) ;
#90 = DIRECTION ( 'NONE',  ( 0.000000000000000000, 0.000000000000000000, 1.000000000000000000 ) ) ;
#91 = VERTEX_POINT ( 'NONE', #229 ) ;
#92 = FACE_OUTER_BOUND ( 'NONE', #63, .T. ) ;
#93 = CIRCLE ( 'NONE', #234, 9.000000000000000000 ) ;
#94 = CYLINDRICAL_SURFACE ( 'NONE', #3, 9.000000000000000000 ) ;
#95 = DIRECTION ( 'NONE',  ( -1.000000000000000000, 0.000000000000000000, 0.000000000000000000 ) ) ;
#96 = CARTESIAN_POINT ( 'NONE',  ( 0.000000000000000000, 0.000000000000000000, 0.000000000000000000 ) ) ;
#97 = PRODUCT_DEFINITION_SHAPE ( 'NONE', 'NONE',  #252 ) ;
#98 = EDGE_CURVE ( 'NONE', #102, #246, #39, .T. ) ;
#99 = DIRECTION ( 'NONE',  ( -0.000000000000000000, -0.000000000000000000, -1.000000000000000000 ) ) ;
#100 = CC_DESIGN_DATE_AND_TIME_ASSIGNMENT ( #26, #68, ( #252 ) ) ;
#101 = EDGE_CURVE ( 'NONE', #25, #153, #132, .T. ) ;
#102 = VERTEX_POINT ( 'NONE', #58 ) ;
#103 = DIRECTION ( 'NONE',  ( -1.000000000000000000, 0.000000000000000000, 0.000000000000000000 ) ) ;
#104 = PERSON_AND_ORGANIZATION_ROLE ( 'creator' ) ;
#105 = ORIENTED_EDGE ( 'NONE', *, *, #1, .T. ) ;
#106 = CARTESIAN_POINT ( 'NONE',  ( 9.000000000000000000, 1.102182119232617714E-15, 0.000000000000000000 ) ) ;
#107 = APPROVAL_PERSON_ORGANIZATION ( #83, #245, #146 ) ;
#108 = DIRECTION ( 'NONE',  ( 1.000000000000000000, 0.000000000000000000, 0.000000000000000000 ) ) ;
#109 = DIRECTION ( 'NONE',  ( 0.000000000000000000, 0.000000000000000000, 1.000000000000000000 ) ) ;
#110 = DIRECTION ( 'NONE',  ( -0.000000000000000000, -0.000000000000000000, -1.000000000000000000 ) ) ;
#111 = CARTESIAN_POINT ( 'NONE',  ( 0.000000000000000000, 0.000000000000000000, 107.0000000000000142 ) ) ;
#112 = ADVANCED_FACE ( 'NONE', ( #193 ), #94, .T. ) ;
#113 = DIRECTION ( 'NONE',  ( 1.000000000000000000, 0.000000000000000000, 0.000000000000000000 ) ) ;
#114 = PLANE ( 'NONE',  #139 ) ;
#115 = ORIENTED_EDGE ( 'NONE', *, *, #171, .F. ) ;
#116 = AXIS2_PLACEMENT_3D ( 'NONE', #17, #13, #176 ) ;
#117 = DESIGN_CONTEXT ( 'detailed design', #76, 'design' ) ;
#118 = ADVANCED_FACE ( 'NONE', ( #77 ), #114, .F. ) ;
#119 = AXIS2_PLACEMENT_3D ( 'NONE', #249, #147, #103 ) ;
#120 = PRODUCT_DEFINITION_FORMATION_WITH_SPECIFIED_SOURCE ( 'LIBOVOLNÝ', '', #231, .NOT_KNOWN. ) ;
#121 = ORIENTED_EDGE ( 'NONE', *, *, #98, .F. ) ;
#122 = AXIS2_PLACEMENT_3D ( 'NONE', #31, #168, #12 ) ;
#123 = EDGE_CURVE ( 'NONE', #91, #48, #236, .T. ) ;
#124 = CALENDAR_DATE ( 2022, 7, 7 ) ;
#125 = DIRECTION ( 'NONE',  ( 1.000000000000000000, 0.000000000000000000, 0.000000000000000000 ) ) ;
#126 = PERSON_AND_ORGANIZATION_ROLE ( 'design_owner' ) ;
#127 = CC_DESIGN_PERSON_AND_ORGANIZATION_ASSIGNMENT ( #162, #200, ( #156 ) ) ;
#128 = CYLINDRICAL_SURFACE ( 'NONE', #119, 9.000000000000000000 ) ;
#129 = APPROVAL_ROLE ( '' ) ;
#130 = CARTESIAN_POINT ( 'NONE',  ( 0.000000000000000000, 0.000000000000000000, 0.000000000000000000 ) ) ;
#131 = DIRECTION ( 'NONE',  ( 0.000000000000000000, 0.000000000000000000, 1.000000000000000000 ) ) ;
#132 = LINE ( 'NONE', #16, #177 ) ;
#133 = ORIENTED_EDGE ( 'NONE', *, *, #183, .T. ) ;
#134 = ORIENTED_EDGE ( 'NONE', *, *, #123, .T. ) ;
#135 = LOCAL_TIME ( 19, 21, 41.00000000000000000, #65 ) ;
#136 = ORIENTED_EDGE ( 'NONE', *, *, #1, .F. ) ;
#137 = EDGE_LOOP ( 'NONE', ( #38, #167, #105, #75 ) ) ;
#138 = EDGE_CURVE ( 'NONE', #91, #44, #222, .T. ) ;
#139 = AXIS2_PLACEMENT_3D ( 'NONE', #96, #79, #155 ) ;
#140 = EDGE_LOOP ( 'NONE', ( #210, #133 ) ) ;
#141 = ORIENTED_EDGE ( 'NONE', *, *, #138, .T. ) ;
#142 = COORDINATED_UNIVERSAL_TIME_OFFSET ( 1, 0, .AHEAD. ) ;
#143 = CALENDAR_DATE ( 2022, 7, 7 ) ;
#144 = AXIS2_PLACEMENT_3D ( 'NONE', #73, #21, #74 ) ;
#145 = DIRECTION ( 'NONE',  ( 0.000000000000000000, 0.000000000000000000, 1.000000000000000000 ) ) ;
#146 = APPROVAL_ROLE ( '' ) ;
#147 = DIRECTION ( 'NONE',  ( -0.000000000000000000, -0.000000000000000000, -1.000000000000000000 ) ) ;
#148 = ADVANCED_FACE ( 'NONE', ( #92 ), #50, .T. ) ;
#149 = DIRECTION ( 'NONE',  ( 0.000000000000000000, 0.000000000000000000, 1.000000000000000000 ) ) ;
#150 = FACE_OUTER_BOUND ( 'NONE', #216, .T. ) ;
#151 = CYLINDRICAL_SURFACE ( 'NONE', #227, 5.750000000000000000 ) ;
#152 = ORIENTED_EDGE ( 'NONE', *, *, #29, .T. ) ;
#153 = VERTEX_POINT ( 'NONE', #89 ) ;
#154 = VECTOR ( 'NONE', #110, 1000.000000000000000 ) ;
#155 = DIRECTION ( 'NONE',  ( 1.000000000000000000, 0.000000000000000000, -0.000000000000000000 ) ) ;
#156 = SECURITY_CLASSIFICATION ( '', '', #219 ) ;
#157 = EDGE_LOOP ( 'NONE', ( #215, #115 ) ) ;
#158 = CIRCLE ( 'NONE', #86, 5.750000000000000000 ) ;
#159 = AXIS2_PLACEMENT_3D ( 'NONE', #130, #207, #33 ) ;
#160 = ORIENTED_EDGE ( 'NONE', *, *, #165, .F. ) ;
#161 = ORIENTED_EDGE ( 'NONE', *, *, #101, .T. ) ;
#162 = PERSON_AND_ORGANIZATION ( #36, #197 ) ;
#163 = PERSON_AND_ORGANIZATION ( #36, #197 ) ;
#164 = DATE_TIME_ROLE ( 'classification_date' ) ;
#165 = EDGE_CURVE ( 'NONE', #25, #102, #93, .T. ) ;
#166 = DATE_AND_TIME ( #124, #46 ) ;
#167 = ORIENTED_EDGE ( 'NONE', *, *, #98, .T. ) ;
#168 = DIRECTION ( 'NONE',  ( 0.000000000000000000, 0.000000000000000000, 1.000000000000000000 ) ) ;
#169 = FACE_BOUND ( 'NONE', #157, .T. ) ;
#170 = DIRECTION ( 'NONE',  ( -0.000000000000000000, -0.000000000000000000, -1.000000000000000000 ) ) ;
#171 = EDGE_CURVE ( 'NONE', #184, #44, #158, .T. ) ;
#172 = DIRECTION ( 'NONE',  ( 0.000000000000000000, 0.000000000000000000, 1.000000000000000000 ) ) ;
#173 = EDGE_LOOP ( 'NONE', ( #121, #160, #161, #18 ) ) ;
#174 = CARTESIAN_POINT ( 'NONE',  ( 0.000000000000000000, 0.000000000000000000, 7.000000000000000000 ) ) ;
#175 = AXIS2_PLACEMENT_3D ( 'NONE', #209, #90, #113 ) ;
#176 = DIRECTION ( 'NONE',  ( 1.000000000000000000, 0.000000000000000000, 0.000000000000000000 ) ) ;
#177 = VECTOR ( 'NONE', #37, 1000.000000000000000 ) ;
#178 = ADVANCED_FACE ( 'NONE', ( #28 ), #128, .T. ) ;
#179 = CALENDAR_DATE ( 2022, 7, 7 ) ;
#180 = ORIENTED_EDGE ( 'NONE', *, *, #138, .F. ) ;
#181 =( LENGTH_UNIT ( ) NAMED_UNIT ( * ) SI_UNIT ( .MILLI., .METRE. ) );
#182 = CC_DESIGN_APPROVAL ( #245, ( #156 ) ) ;
#183 = EDGE_CURVE ( 'NONE', #102, #25, #7, .T. ) ;
#184 = VERTEX_POINT ( 'NONE', #34 ) ;
#185 =( NAMED_UNIT ( * ) SI_UNIT ( $, .STERADIAN. ) SOLID_ANGLE_UNIT ( ) );
#186 = APPROVAL_STATUS ( 'not_yet_approved' ) ;
#187 = CARTESIAN_POINT ( 'NONE',  ( 0.000000000000000000, 0.000000000000000000, 7.000000000000000000 ) ) ;
#188 = ORIENTED_EDGE ( 'NONE', *, *, #171, .T. ) ;
#189 = DIRECTION ( 'NONE',  ( 0.000000000000000000, 0.000000000000000000, 1.000000000000000000 ) ) ;
#190 = DIRECTION ( 'NONE',  ( -1.000000000000000000, 0.000000000000000000, 0.000000000000000000 ) ) ;
#191 = CIRCLE ( 'NONE', #175, 9.000000000000000000 ) ;
#192 = CARTESIAN_POINT ( 'NONE',  ( 9.000000000000000000, 1.102182119232617714E-15, 7.000000000000000000 ) ) ;
#193 = FACE_OUTER_BOUND ( 'NONE', #137, .T. ) ;
#194 = CARTESIAN_POINT ( 'NONE',  ( 0.000000000000000000, 0.000000000000000000, 7.000000000000000000 ) ) ;
#195 = CIRCLE ( 'NONE', #42, 9.000000000000000000 ) ;
#196 = AXIS2_PLACEMENT_3D ( 'NONE', #52, #145, #243 ) ;
#197 = ORGANIZATION ( 'NEURÈENÝ', 'NEURÈENÝ', '' ) ;
#198 = PRODUCT_RELATED_PRODUCT_CATEGORY ( 'detail', '', ( #231 ) ) ;
#199 = APPROVAL ( #220, 'NEURÈENÝ' ) ;
#200 = PERSON_AND_ORGANIZATION_ROLE ( 'classification_officer' ) ;
#201 = APPROVAL ( #186, 'NEURÈENÝ' ) ;
#202 = PERSON_AND_ORGANIZATION ( #36, #197 ) ;
#203 = DIRECTION ( 'NONE',  ( -0.000000000000000000, -0.000000000000000000, -1.000000000000000000 ) ) ;
#204 = APPLICATION_PROTOCOL_DEFINITION ( 'international standard', 'config_control_design', 1994, #76 ) ;
#205 = CARTESIAN_POINT ( 'NONE',  ( 0.000000000000000000, 0.000000000000000000, 0.000000000000000000 ) ) ;
#206 = AXIS2_PLACEMENT_3D ( 'NONE', #40, #172, #212 ) ;
#207 = DIRECTION ( 'NONE',  ( 0.000000000000000000, 0.000000000000000000, 1.000000000000000000 ) ) ;
#208 = CARTESIAN_POINT ( 'NONE',  ( 0.000000000000000000, 0.000000000000000000, 107.0000000000000142 ) ) ;
#209 = CARTESIAN_POINT ( 'NONE',  ( 0.000000000000000000, 0.000000000000000000, 0.000000000000000000 ) ) ;
#210 = ORIENTED_EDGE ( 'NONE', *, *, #165, .T. ) ;
#211 = VECTOR ( 'NONE', #203, 1000.000000000000000 ) ;
#212 = DIRECTION ( 'NONE',  ( 1.000000000000000000, 0.000000000000000000, 0.000000000000000000 ) ) ;
#213 = DIRECTION ( 'NONE',  ( 0.000000000000000000, 0.000000000000000000, 1.000000000000000000 ) ) ;
#214 = EDGE_CURVE ( 'NONE', #48, #184, #72, .T. ) ;
#215 = ORIENTED_EDGE ( 'NONE', *, *, #59, .F. ) ;
#216 = EDGE_LOOP ( 'NONE', ( #23, #230, #188, #180 ) ) ;
#217 = APPLICATION_CONTEXT ( 'configuration controlled 3d designs of mechanical parts and assemblies' ) ;
#218 = EDGE_CURVE ( 'NONE', #153, #246, #195, .T. ) ;
#219 = SECURITY_CLASSIFICATION_LEVEL ( 'unclassified' ) ;
#220 = APPROVAL_STATUS ( 'not_yet_approved' ) ;
#221 = CC_DESIGN_APPROVAL ( #199, ( #120 ) ) ;
#222 = LINE ( 'NONE', #247, #211 ) ;
#223 = COORDINATED_UNIVERSAL_TIME_OFFSET ( 1, 0, .AHEAD. ) ;
#224 = PERSON_AND_ORGANIZATION ( #36, #197 ) ;
#225 = CC_DESIGN_PERSON_AND_ORGANIZATION_ASSIGNMENT ( #88, #244, ( #252 ) ) ;
#226 = CIRCLE ( 'NONE', #116, 5.750000000000000000 ) ;
#227 = AXIS2_PLACEMENT_3D ( 'NONE', #111, #99, #190 ) ;
#228 = DIRECTION ( 'NONE',  ( 1.000000000000000000, 0.000000000000000000, 0.000000000000000000 ) ) ;
#229 = CARTESIAN_POINT ( 'NONE',  ( -5.750000000000000000, 0.000000000000000000, 107.0000000000000142 ) ) ;
#230 = ORIENTED_EDGE ( 'NONE', *, *, #214, .T. ) ;
#231 = PRODUCT ( 'b438', 'b438', '', ( #67 ) ) ;
#232 = CARTESIAN_POINT ( 'NONE',  ( -9.000000000000000000, 0.000000000000000000, 7.000000000000000000 ) ) ;
#233 = DIRECTION ( 'NONE',  ( 1.000000000000000000, 0.000000000000000000, -0.000000000000000000 ) ) ;
#234 = AXIS2_PLACEMENT_3D ( 'NONE', #187, #131, #10 ) ;
#235 = CC_DESIGN_PERSON_AND_ORGANIZATION_ASSIGNMENT ( #163, #84, ( #120 ) ) ;
#236 = CIRCLE ( 'NONE', #53, 5.750000000000000000 ) ;
#237 = APPROVAL_PERSON_ORGANIZATION ( #202, #201, #11 ) ;
#238 = APPROVAL_DATE_TIME ( #4, #245 ) ;
#239 = APPROVAL_DATE_TIME ( #166, #199 ) ;
#240 = APPLICATION_PROTOCOL_DEFINITION ( 'international standard', 'config_control_design', 1994, #217 ) ;
#241 = LOCAL_TIME ( 19, 21, 41.00000000000000000, #9 ) ;
#242 = APPROVAL_DATE_TIME ( #47, #201 ) ;
#243 = DIRECTION ( 'NONE',  ( 1.000000000000000000, 0.000000000000000000, -0.000000000000000000 ) ) ;
#244 = PERSON_AND_ORGANIZATION_ROLE ( 'creator' ) ;
#245 = APPROVAL ( #71, 'NEURÈENÝ' ) ;
#246 = VERTEX_POINT ( 'NONE', #106 ) ;
#247 = CARTESIAN_POINT ( 'NONE',  ( -5.750000000000000000, 0.000000000000000000, 107.0000000000000142 ) ) ;
#248 = CALENDAR_DATE ( 2022, 7, 7 ) ;
#249 = CARTESIAN_POINT ( 'NONE',  ( 0.000000000000000000, 0.000000000000000000, 7.000000000000000000 ) ) ;
#250 = FACE_OUTER_BOUND ( 'NONE', #66, .T. ) ;
#251 = EDGE_LOOP ( 'NONE', ( #62, #136 ) ) ;
#252 = PRODUCT_DEFINITION ( 'NEZNÁMÝ', '', #120, #117 ) ;
#253 = CYLINDRICAL_SURFACE ( 'NONE', #144, 5.750000000000000000 ) ;
#254 = PLANE ( 'NONE',  #2 ) ;
#255 = CC_DESIGN_APPROVAL ( #201, ( #252 ) ) ;
ENDSEC;
END-ISO-10303-21;
