ISO-10303-21;
HEADER;
FILE_DESCRIPTION (( 'STEP AP203' ),
    '1' );
FILE_NAME ('f473.STEP',
    '2023-02-13T12:25:51',
    ( '' ),
    ( '' ),
    'SwSTEP 2.0',
    'SolidWorks 2019',
    '' );
FILE_SCHEMA (( 'CONFIG_CONTROL_DESIGN' ));
ENDSEC;

DATA;
#1 = PERSON_AND_ORGANIZATION ( #207, #88 ) ;
#2 = ORIENTED_EDGE ( 'NONE', *, *, #113, .F. ) ;
#3 = CALENDAR_DATE ( 2023, 13, 2 ) ;
#4 = PRODUCT_DEFINITION_SHAPE ( 'NONE', 'NONE',  #139 ) ;
#5 = PRODUCT_DEFINITION_FORMATION_WITH_SPECIFIED_SOURCE ( 'LIBOVOLNÝ', '', #222, .NOT_KNOWN. ) ;
#6 = PLANE ( 'NONE',  #21 ) ;
#7 = ADVANCED_FACE ( 'NONE', ( #43 ), #48, .T. ) ;
#8 = CARTESIAN_POINT ( 'NONE',  ( 6.000000000000000888, 7.347880794884120722E-16, 125.0000000000000000 ) ) ;
#9 = EDGE_CURVE ( 'NONE', #228, #126, #165, .T. ) ;
#10 = DIRECTION ( 'NONE',  ( 1.000000000000000000, 0.000000000000000000, -0.000000000000000000 ) ) ;
#11 = CARTESIAN_POINT ( 'NONE',  ( -6.000000000000000888, 0.000000000000000000, 7.000000000000000000 ) ) ;
#12 = CC_DESIGN_SECURITY_CLASSIFICATION ( #130, ( #5 ) ) ;
#13 = PERSON_AND_ORGANIZATION ( #207, #88 ) ;
#14 = AXIS2_PLACEMENT_3D ( 'NONE', #229, #141, #137 ) ;
#15 = EDGE_LOOP ( 'NONE', ( #232, #254, #66, #119 ) ) ;
#16 = ORIENTED_EDGE ( 'NONE', *, *, #131, .T. ) ;
#17 = DATE_AND_TIME ( #230, #108 ) ;
#18 = ADVANCED_FACE ( 'NONE', ( #198 ), #102, .T. ) ;
#19 = DIRECTION ( 'NONE',  ( 0.000000000000000000, 0.000000000000000000, 1.000000000000000000 ) ) ;
#20 = COORDINATED_UNIVERSAL_TIME_OFFSET ( 1, 0, .AHEAD. ) ;
#21 = AXIS2_PLACEMENT_3D ( 'NONE', #204, #183, #181 ) ;
#22 = CARTESIAN_POINT ( 'NONE',  ( 9.000000000000000000, 1.102182119232617714E-15, 7.000000000000000000 ) ) ;
#23 = ORIENTED_EDGE ( 'NONE', *, *, #171, .T. ) ;
#24 =( LENGTH_UNIT ( ) NAMED_UNIT ( * ) SI_UNIT ( .MILLI., .METRE. ) );
#25 = DIRECTION ( 'NONE',  ( 0.000000000000000000, 0.000000000000000000, 1.000000000000000000 ) ) ;
#26 = PERSON_AND_ORGANIZATION_ROLE ( 'creator' ) ;
#27 = APPLICATION_CONTEXT ( 'configuration controlled 3d designs of mechanical parts and assemblies' ) ;
#28 = APPROVAL_PERSON_ORGANIZATION ( #13, #56, #60 ) ;
#29 = DIRECTION ( 'NONE',  ( 1.000000000000000000, 0.000000000000000000, 0.000000000000000000 ) ) ;
#30 = CC_DESIGN_PERSON_AND_ORGANIZATION_ASSIGNMENT ( #67, #196, ( #130 ) ) ;
#31 = CC_DESIGN_APPROVAL ( #150, ( #5 ) ) ;
#32 = COORDINATED_UNIVERSAL_TIME_OFFSET ( 1, 0, .AHEAD. ) ;
#33 = CIRCLE ( 'NONE', #248, 9.000000000000000000 ) ;
#34 = DATE_TIME_ROLE ( 'classification_date' ) ;
#35 = DIRECTION ( 'NONE',  ( -0.000000000000000000, -0.000000000000000000, -1.000000000000000000 ) ) ;
#36 = EDGE_CURVE ( 'NONE', #252, #158, #162, .T. ) ;
#37 = CARTESIAN_POINT ( 'NONE',  ( 0.000000000000000000, 0.000000000000000000, 125.0000000000000000 ) ) ;
#38 = ORIENTED_EDGE ( 'NONE', *, *, #9, .T. ) ;
#39 = APPROVAL_ROLE ( '' ) ;
#40 = CARTESIAN_POINT ( 'NONE',  ( 0.000000000000000000, 0.000000000000000000, 125.0000000000000000 ) ) ;
#41 = DIRECTION ( 'NONE',  ( -0.000000000000000000, -0.000000000000000000, -1.000000000000000000 ) ) ;
#42 = ADVANCED_FACE ( 'NONE', ( #164 ), #186, .T. ) ;
#43 = FACE_OUTER_BOUND ( 'NONE', #15, .T. ) ;
#44 = PERSON_AND_ORGANIZATION_ROLE ( 'design_owner' ) ;
#45 = LINE ( 'NONE', #22, #81 ) ;
#46 = ORIENTED_EDGE ( 'NONE', *, *, #92, .F. ) ;
#47 = SECURITY_CLASSIFICATION_LEVEL ( 'unclassified' ) ;
#48 = CYLINDRICAL_SURFACE ( 'NONE', #14, 6.000000000000000888 ) ;
#49 = CARTESIAN_POINT ( 'NONE',  ( 0.000000000000000000, 0.000000000000000000, 125.0000000000000000 ) ) ;
#50 = APPROVAL_DATE_TIME ( #156, #100 ) ;
#51 = ADVANCED_FACE ( 'NONE', ( #57 ), #245, .F. ) ;
#52 = AXIS2_PLACEMENT_3D ( 'NONE', #149, #86, #133 ) ;
#53 = ADVANCED_FACE ( 'NONE', ( #73 ), #59, .T. ) ;
#54 = DIRECTION ( 'NONE',  ( -0.000000000000000000, -0.000000000000000000, -1.000000000000000000 ) ) ;
#55 = DESIGN_CONTEXT ( 'detailed design', #27, 'design' ) ;
#56 = APPROVAL ( #148, 'NEURÈENÝ' ) ;
#57 = FACE_OUTER_BOUND ( 'NONE', #178, .T. ) ;
#58 = APPROVAL_PERSON_ORGANIZATION ( #1, #150, #39 ) ;
#59 = CYLINDRICAL_SURFACE ( 'NONE', #52, 9.000000000000000000 ) ;
#60 = APPROVAL_ROLE ( '' ) ;
#61 = EDGE_LOOP ( 'NONE', ( #195, #23, #169, #68 ) ) ;
#62 = DIRECTION ( 'NONE',  ( -1.000000000000000000, 0.000000000000000000, 0.000000000000000000 ) ) ;
#63 = ORIENTED_EDGE ( 'NONE', *, *, #129, .F. ) ;
#64 = MANIFOLD_SOLID_BREP ( 'Pøidat vysunutím3', #114 ) ;
#65 = AXIS2_PLACEMENT_3D ( 'NONE', #40, #138, #29 ) ;
#66 = ORIENTED_EDGE ( 'NONE', *, *, #182, .T. ) ;
#67 = PERSON_AND_ORGANIZATION ( #207, #88 ) ;
#68 = ORIENTED_EDGE ( 'NONE', *, *, #70, .F. ) ;
#69 = CARTESIAN_POINT ( 'NONE',  ( 0.000000000000000000, 0.000000000000000000, 125.0000000000000000 ) ) ;
#70 = EDGE_CURVE ( 'NONE', #126, #216, #168, .T. ) ;
#71 = ADVANCED_BREP_SHAPE_REPRESENTATION ( 'f473', ( #64, #225 ), #205 ) ;
#72 = VECTOR ( 'NONE', #111, 1000.000000000000000 ) ;
#73 = FACE_OUTER_BOUND ( 'NONE', #61, .T. ) ;
#74 = CC_DESIGN_PERSON_AND_ORGANIZATION_ASSIGNMENT ( #203, #26, ( #139 ) ) ;
#75 = ORIENTED_EDGE ( 'NONE', *, *, #171, .F. ) ;
#76 = DIRECTION ( 'NONE',  ( 0.000000000000000000, 0.000000000000000000, 1.000000000000000000 ) ) ;
#77 = ORIENTED_EDGE ( 'NONE', *, *, #182, .F. ) ;
#78 = CC_DESIGN_DATE_AND_TIME_ASSIGNMENT ( #116, #179, ( #139 ) ) ;
#79 = ORIENTED_EDGE ( 'NONE', *, *, #70, .T. ) ;
#80 = AXIS2_PLACEMENT_3D ( 'NONE', #208, #19, #90 ) ;
#81 = VECTOR ( 'NONE', #118, 1000.000000000000000 ) ;
#82 = EDGE_CURVE ( 'NONE', #252, #214, #217, .T. ) ;
#83 = APPROVAL_STATUS ( 'not_yet_approved' ) ;
#84 = CIRCLE ( 'NONE', #167, 6.000000000000000888 ) ;
#85 = DIRECTION ( 'NONE',  ( -0.000000000000000000, -0.000000000000000000, -1.000000000000000000 ) ) ;
#86 = DIRECTION ( 'NONE',  ( -0.000000000000000000, -0.000000000000000000, -1.000000000000000000 ) ) ;
#87 = CARTESIAN_POINT ( 'NONE',  ( 0.000000000000000000, 0.000000000000000000, 7.000000000000000000 ) ) ;
#88 = ORGANIZATION ( 'NEURÈENÝ', 'NEURÈENÝ', '' ) ;
#89 = CARTESIAN_POINT ( 'NONE',  ( -9.000000000000000000, 0.000000000000000000, 7.000000000000000000 ) ) ;
#90 = DIRECTION ( 'NONE',  ( 1.000000000000000000, 0.000000000000000000, 0.000000000000000000 ) ) ;
#91 = ORIENTED_EDGE ( 'NONE', *, *, #242, .T. ) ;
#92 = EDGE_CURVE ( 'NONE', #237, #216, #185, .T. ) ;
#93 = EDGE_LOOP ( 'NONE', ( #16, #174 ) ) ;
#94 = APPROVAL_DATE_TIME ( #17, #150 ) ;
#95 = ORIENTED_EDGE ( 'NONE', *, *, #36, .F. ) ;
#96 = AXIS2_PLACEMENT_3D ( 'NONE', #37, #41, #62 ) ;
#97 = AXIS2_PLACEMENT_3D ( 'NONE', #69, #142, #219 ) ;
#98 = CALENDAR_DATE ( 2023, 13, 2 ) ;
#99 = CARTESIAN_POINT ( 'NONE',  ( 0.000000000000000000, 0.000000000000000000, 0.000000000000000000 ) ) ;
#100 = APPROVAL ( #83, 'NEURÈENÝ' ) ;
#101 = CARTESIAN_POINT ( 'NONE',  ( -9.000000000000000000, 0.000000000000000000, 0.000000000000000000 ) ) ;
#102 = PLANE ( 'NONE',  #97 ) ;
#103 = ORIENTED_EDGE ( 'NONE', *, *, #224, .T. ) ;
#104 =( NAMED_UNIT ( * ) SI_UNIT ( $, .STERADIAN. ) SOLID_ANGLE_UNIT ( ) );
#105 = CC_DESIGN_PERSON_AND_ORGANIZATION_ASSIGNMENT ( #220, #233, ( #5 ) ) ;
#106 = LOCAL_TIME ( 13, 25, 51.00000000000000000, #255 ) ;
#107 = CARTESIAN_POINT ( 'NONE',  ( 9.000000000000000000, 1.102182119232617714E-15, 0.000000000000000000 ) ) ;
#108 = LOCAL_TIME ( 13, 25, 51.00000000000000000, #253 ) ;
#109 = SHAPE_DEFINITION_REPRESENTATION ( #4, #71 ) ;
#110 = CARTESIAN_POINT ( 'NONE',  ( 6.000000000000000888, 7.347880794884120722E-16, 125.0000000000000000 ) ) ;
#111 = DIRECTION ( 'NONE',  ( -0.000000000000000000, -0.000000000000000000, -1.000000000000000000 ) ) ;
#112 = APPLICATION_PROTOCOL_DEFINITION ( 'international standard', 'config_control_design', 1994, #210 ) ;
#113 = EDGE_CURVE ( 'NONE', #135, #214, #84, .T. ) ;
#114 = CLOSED_SHELL ( 'NONE', ( #223, #53, #42, #250, #51, #7, #18 ) ) ;
#115 = LINE ( 'NONE', #194, #72 ) ;
#116 = DATE_AND_TIME ( #3, #106 ) ;
#117 = CARTESIAN_POINT ( 'NONE',  ( 0.000000000000000000, 0.000000000000000000, 7.000000000000000000 ) ) ;
#118 = DIRECTION ( 'NONE',  ( -0.000000000000000000, -0.000000000000000000, -1.000000000000000000 ) ) ;
#119 = ORIENTED_EDGE ( 'NONE', *, *, #113, .T. ) ;
#120 = APPROVAL_STATUS ( 'not_yet_approved' ) ;
#121 = PRODUCT_RELATED_PRODUCT_CATEGORY ( 'detail', '', ( #222 ) ) ;
#122 = DIRECTION ( 'NONE',  ( 0.000000000000000000, 0.000000000000000000, 1.000000000000000000 ) ) ;
#123 = APPROVAL_PERSON_ORGANIZATION ( #153, #100, #192 ) ;
#124 = AXIS2_PLACEMENT_3D ( 'NONE', #117, #122, #140 ) ;
#125 = DIRECTION ( 'NONE',  ( 1.000000000000000000, 0.000000000000000000, 0.000000000000000000 ) ) ;
#126 = VERTEX_POINT ( 'NONE', #197 ) ;
#127 = LOCAL_TIME ( 13, 25, 51.00000000000000000, #20 ) ;
#128 = DIRECTION ( 'NONE',  ( 1.000000000000000000, 0.000000000000000000, 0.000000000000000000 ) ) ;
#129 = EDGE_CURVE ( 'NONE', #216, #237, #136, .T. ) ;
#130 = SECURITY_CLASSIFICATION ( '', '', #47 ) ;
#131 = EDGE_CURVE ( 'NONE', #158, #252, #244, .T. ) ;
#132 = AXIS2_PLACEMENT_3D ( 'NONE', #218, #163, #201 ) ;
#133 = DIRECTION ( 'NONE',  ( -1.000000000000000000, 0.000000000000000000, 0.000000000000000000 ) ) ;
#134 = CALENDAR_DATE ( 2023, 13, 2 ) ;
#135 = VERTEX_POINT ( 'NONE', #11 ) ;
#136 = CIRCLE ( 'NONE', #175, 9.000000000000000000 ) ;
#137 = DIRECTION ( 'NONE',  ( -1.000000000000000000, 0.000000000000000000, 0.000000000000000000 ) ) ;
#138 = DIRECTION ( 'NONE',  ( 0.000000000000000000, 0.000000000000000000, 1.000000000000000000 ) ) ;
#139 = PRODUCT_DEFINITION ( 'NEZNÁMÝ', '', #5, #55 ) ;
#140 = DIRECTION ( 'NONE',  ( 1.000000000000000000, 0.000000000000000000, 0.000000000000000000 ) ) ;
#141 = DIRECTION ( 'NONE',  ( -0.000000000000000000, -0.000000000000000000, -1.000000000000000000 ) ) ;
#142 = DIRECTION ( 'NONE',  ( 0.000000000000000000, 0.000000000000000000, 1.000000000000000000 ) ) ;
#143 = VECTOR ( 'NONE', #54, 1000.000000000000000 ) ;
#144 = FACE_OUTER_BOUND ( 'NONE', #249, .T. ) ;
#145 =( NAMED_UNIT ( * ) PLANE_ANGLE_UNIT ( ) SI_UNIT ( $, .RADIAN. ) );
#146 = UNCERTAINTY_MEASURE_WITH_UNIT (LENGTH_MEASURE( 1.000000000000000082E-05 ), #24, 'distance_accuracy_value', 'NONE');
#147 = CC_DESIGN_APPROVAL ( #100, ( #139 ) ) ;
#148 = APPROVAL_STATUS ( 'not_yet_approved' ) ;
#149 = CARTESIAN_POINT ( 'NONE',  ( 0.000000000000000000, 0.000000000000000000, 7.000000000000000000 ) ) ;
#150 = APPROVAL ( #120, 'NEURÈENÝ' ) ;
#151 = DATE_AND_TIME ( #98, #127 ) ;
#152 = EDGE_LOOP ( 'NONE', ( #75, #191, #79, #160 ) ) ;
#153 = PERSON_AND_ORGANIZATION ( #207, #88 ) ;
#154 = AXIS2_PLACEMENT_3D ( 'NONE', #49, #25, #206 ) ;
#155 = EDGE_LOOP ( 'NONE', ( #2, #202 ) ) ;
#156 = DATE_AND_TIME ( #193, #211 ) ;
#157 = DIRECTION ( 'NONE',  ( 0.000000000000000000, 0.000000000000000000, 1.000000000000000000 ) ) ;
#158 = VERTEX_POINT ( 'NONE', #215 ) ;
#159 = CYLINDRICAL_SURFACE ( 'NONE', #96, 6.000000000000000888 ) ;
#160 = ORIENTED_EDGE ( 'NONE', *, *, #129, .T. ) ;
#161 = COORDINATED_UNIVERSAL_TIME_OFFSET ( 1, 0, .AHEAD. ) ;
#162 = CIRCLE ( 'NONE', #154, 6.000000000000000888 ) ;
#163 = DIRECTION ( 'NONE',  ( 0.000000000000000000, 0.000000000000000000, 1.000000000000000000 ) ) ;
#164 = FACE_OUTER_BOUND ( 'NONE', #152, .T. ) ;
#165 = CIRCLE ( 'NONE', #124, 9.000000000000000000 ) ;
#166 = DIRECTION ( 'NONE',  ( -1.000000000000000000, 0.000000000000000000, 0.000000000000000000 ) ) ;
#167 = AXIS2_PLACEMENT_3D ( 'NONE', #172, #157, #234 ) ;
#168 = LINE ( 'NONE', #89, #247 ) ;
#169 = ORIENTED_EDGE ( 'NONE', *, *, #92, .T. ) ;
#170 = PERSON_AND_ORGANIZATION ( #207, #88 ) ;
#171 = EDGE_CURVE ( 'NONE', #228, #237, #45, .T. ) ;
#172 = CARTESIAN_POINT ( 'NONE',  ( 0.000000000000000000, 0.000000000000000000, 7.000000000000000000 ) ) ;
#173 = DIRECTION ( 'NONE',  ( 0.000000000000000000, 0.000000000000000000, 1.000000000000000000 ) ) ;
#174 = ORIENTED_EDGE ( 'NONE', *, *, #36, .T. ) ;
#175 = AXIS2_PLACEMENT_3D ( 'NONE', #99, #176, #190 ) ;
#176 = DIRECTION ( 'NONE',  ( 0.000000000000000000, 0.000000000000000000, 1.000000000000000000 ) ) ;
#177 = FACE_OUTER_BOUND ( 'NONE', #213, .T. ) ;
#178 = EDGE_LOOP ( 'NONE', ( #63, #46 ) ) ;
#179 = DATE_TIME_ROLE ( 'creation_date' ) ;
#180 = LOCAL_TIME ( 13, 25, 51.00000000000000000, #32 ) ;
#181 = DIRECTION ( 'NONE',  ( 1.000000000000000000, 0.000000000000000000, -0.000000000000000000 ) ) ;
#182 = EDGE_CURVE ( 'NONE', #158, #135, #115, .T. ) ;
#183 = DIRECTION ( 'NONE',  ( 0.000000000000000000, 0.000000000000000000, 1.000000000000000000 ) ) ;
#184 = CARTESIAN_POINT ( 'NONE',  ( 9.000000000000000000, 1.102182119232617714E-15, 7.000000000000000000 ) ) ;
#185 = CIRCLE ( 'NONE', #80, 9.000000000000000000 ) ;
#186 = CYLINDRICAL_SURFACE ( 'NONE', #241, 9.000000000000000000 ) ;
#187 = CC_DESIGN_PERSON_AND_ORGANIZATION_ASSIGNMENT ( #236, #238, ( #5 ) ) ;
#188 = CARTESIAN_POINT ( 'NONE',  ( 6.000000000000000888, 7.347880794884120722E-16, 7.000000000000000000 ) ) ;
#189 = DATE_AND_TIME ( #134, #180 ) ;
#190 = DIRECTION ( 'NONE',  ( 1.000000000000000000, 0.000000000000000000, 0.000000000000000000 ) ) ;
#191 = ORIENTED_EDGE ( 'NONE', *, *, #224, .F. ) ;
#192 = APPROVAL_ROLE ( '' ) ;
#193 = CALENDAR_DATE ( 2023, 13, 2 ) ;
#194 = CARTESIAN_POINT ( 'NONE',  ( -6.000000000000000888, 0.000000000000000000, 125.0000000000000000 ) ) ;
#195 = ORIENTED_EDGE ( 'NONE', *, *, #9, .F. ) ;
#196 = PERSON_AND_ORGANIZATION_ROLE ( 'classification_officer' ) ;
#197 = CARTESIAN_POINT ( 'NONE',  ( -9.000000000000000000, 0.000000000000000000, 7.000000000000000000 ) ) ;
#198 = FACE_OUTER_BOUND ( 'NONE', #93, .T. ) ;
#199 = MECHANICAL_CONTEXT ( 'NONE', #210, 'mechanical' ) ;
#200 = CC_DESIGN_PERSON_AND_ORGANIZATION_ASSIGNMENT ( #170, #44, ( #222 ) ) ;
#201 = DIRECTION ( 'NONE',  ( 1.000000000000000000, 0.000000000000000000, 0.000000000000000000 ) ) ;
#202 = ORIENTED_EDGE ( 'NONE', *, *, #242, .F. ) ;
#203 = PERSON_AND_ORGANIZATION ( #207, #88 ) ;
#204 = CARTESIAN_POINT ( 'NONE',  ( 0.000000000000000000, 0.000000000000000000, 7.000000000000000000 ) ) ;
#205 =( GEOMETRIC_REPRESENTATION_CONTEXT ( 3 ) GLOBAL_UNCERTAINTY_ASSIGNED_CONTEXT ( ( #146 ) ) GLOBAL_UNIT_ASSIGNED_CONTEXT ( ( #24, #145, #104 ) ) REPRESENTATION_CONTEXT ( 'NONE', 'WORKASPACE' ) );
#206 = DIRECTION ( 'NONE',  ( 1.000000000000000000, 0.000000000000000000, 0.000000000000000000 ) ) ;
#207 = PERSON ( 'NEURÈENÝ', 'NEURÈENÝ', 'NEURÈENÝ', ('NEURÈENÝ'), ('NEURÈENÝ'), ('NEURÈENÝ') ) ;
#208 = CARTESIAN_POINT ( 'NONE',  ( 0.000000000000000000, 0.000000000000000000, 0.000000000000000000 ) ) ;
#209 = APPROVAL_DATE_TIME ( #189, #56 ) ;
#210 = APPLICATION_CONTEXT ( 'configuration controlled 3d designs of mechanical parts and assemblies' ) ;
#211 = LOCAL_TIME ( 13, 25, 51.00000000000000000, #161 ) ;
#212 = CC_DESIGN_DATE_AND_TIME_ASSIGNMENT ( #151, #34, ( #130 ) ) ;
#213 = EDGE_LOOP ( 'NONE', ( #95, #235, #91, #77 ) ) ;
#214 = VERTEX_POINT ( 'NONE', #188 ) ;
#215 = CARTESIAN_POINT ( 'NONE',  ( -6.000000000000000888, 0.000000000000000000, 125.0000000000000000 ) ) ;
#216 = VERTEX_POINT ( 'NONE', #101 ) ;
#217 = LINE ( 'NONE', #110, #143 ) ;
#218 = CARTESIAN_POINT ( 'NONE',  ( 0.000000000000000000, 0.000000000000000000, 7.000000000000000000 ) ) ;
#219 = DIRECTION ( 'NONE',  ( 1.000000000000000000, 0.000000000000000000, -0.000000000000000000 ) ) ;
#220 = PERSON_AND_ORGANIZATION ( #207, #88 ) ;
#221 = FACE_BOUND ( 'NONE', #155, .T. ) ;
#222 = PRODUCT ( 'f473', 'f473', '', ( #199 ) ) ;
#223 = ADVANCED_FACE ( 'NONE', ( #177 ), #159, .T. ) ;
#224 = EDGE_CURVE ( 'NONE', #126, #228, #33, .T. ) ;
#225 = AXIS2_PLACEMENT_3D ( 'NONE', #251, #76, #125 ) ;
#226 = DIRECTION ( 'NONE',  ( 0.000000000000000000, 0.000000000000000000, 1.000000000000000000 ) ) ;
#227 = CARTESIAN_POINT ( 'NONE',  ( 0.000000000000000000, 0.000000000000000000, 7.000000000000000000 ) ) ;
#228 = VERTEX_POINT ( 'NONE', #184 ) ;
#229 = CARTESIAN_POINT ( 'NONE',  ( 0.000000000000000000, 0.000000000000000000, 125.0000000000000000 ) ) ;
#230 = CALENDAR_DATE ( 2023, 13, 2 ) ;
#231 = CC_DESIGN_APPROVAL ( #56, ( #130 ) ) ;
#232 = ORIENTED_EDGE ( 'NONE', *, *, #82, .F. ) ;
#233 = PERSON_AND_ORGANIZATION_ROLE ( 'design_supplier' ) ;
#234 = DIRECTION ( 'NONE',  ( 1.000000000000000000, 0.000000000000000000, 0.000000000000000000 ) ) ;
#235 = ORIENTED_EDGE ( 'NONE', *, *, #82, .T. ) ;
#236 = PERSON_AND_ORGANIZATION ( #207, #88 ) ;
#237 = VERTEX_POINT ( 'NONE', #107 ) ;
#238 = PERSON_AND_ORGANIZATION_ROLE ( 'creator' ) ;
#239 = APPLICATION_PROTOCOL_DEFINITION ( 'international standard', 'config_control_design', 1994, #27 ) ;
#240 = CIRCLE ( 'NONE', #132, 6.000000000000000888 ) ;
#241 = AXIS2_PLACEMENT_3D ( 'NONE', #87, #35, #166 ) ;
#242 = EDGE_CURVE ( 'NONE', #214, #135, #240, .T. ) ;
#243 = AXIS2_PLACEMENT_3D ( 'NONE', #246, #226, #10 ) ;
#244 = CIRCLE ( 'NONE', #65, 6.000000000000000888 ) ;
#245 = PLANE ( 'NONE',  #243 ) ;
#246 = CARTESIAN_POINT ( 'NONE',  ( 0.000000000000000000, 0.000000000000000000, 0.000000000000000000 ) ) ;
#247 = VECTOR ( 'NONE', #85, 1000.000000000000000 ) ;
#248 = AXIS2_PLACEMENT_3D ( 'NONE', #227, #173, #128 ) ;
#249 = EDGE_LOOP ( 'NONE', ( #103, #38 ) ) ;
#250 = ADVANCED_FACE ( 'NONE', ( #221, #144 ), #6, .T. ) ;
#251 = CARTESIAN_POINT ( 'NONE',  ( 0.000000000000000000, 0.000000000000000000, 0.000000000000000000 ) ) ;
#252 = VERTEX_POINT ( 'NONE', #8 ) ;
#253 = COORDINATED_UNIVERSAL_TIME_OFFSET ( 1, 0, .AHEAD. ) ;
#254 = ORIENTED_EDGE ( 'NONE', *, *, #131, .F. ) ;
#255 = COORDINATED_UNIVERSAL_TIME_OFFSET ( 1, 0, .AHEAD. ) ;
ENDSEC;
END-ISO-10303-21;
