ISO-10303-21;
HEADER;
FILE_DESCRIPTION (( 'STEP AP203' ),
    '1' );
FILE_NAME ('edee.STEP',
    '2022-07-07T17:55:22',
    ( '' ),
    ( '' ),
    'SwSTEP 2.0',
    'SolidWorks 2019',
    '' );
FILE_SCHEMA (( 'CONFIG_CONTROL_DESIGN' ));
ENDSEC;

DATA;
#1 = APPROVAL_STATUS ( 'not_yet_approved' ) ;
#2 = ORIENTED_EDGE ( 'NONE', *, *, #116, .F. ) ;
#3 = ORIENTED_EDGE ( 'NONE', *, *, #57, .F. ) ;
#4 = AXIS2_PLACEMENT_3D ( 'NONE', #37, #66, #239 ) ;
#5 = ORIENTED_EDGE ( 'NONE', *, *, #141, .F. ) ;
#6 = FACE_OUTER_BOUND ( 'NONE', #99, .T. ) ;
#7 = ORIENTED_EDGE ( 'NONE', *, *, #22, .F. ) ;
#8 = ORGANIZATION ( 'NEURÈENÝ', 'NEURÈENÝ', '' ) ;
#9 = DIRECTION ( 'NONE',  ( 1.000000000000000000, 0.000000000000000000, 0.000000000000000000 ) ) ;
#10 = AXIS2_PLACEMENT_3D ( 'NONE', #146, #90, #186 ) ;
#11 = COORDINATED_UNIVERSAL_TIME_OFFSET ( 1, 0, .AHEAD. ) ;
#12 = APPROVAL ( #1, 'NEURÈENÝ' ) ;
#13 = CARTESIAN_POINT ( 'NONE',  ( -1.600000000000000089, 0.000000000000000000, 3.000000000000000000 ) ) ;
#14 = SECURITY_CLASSIFICATION_LEVEL ( 'unclassified' ) ;
#15 = PERSON_AND_ORGANIZATION_ROLE ( 'design_owner' ) ;
#16 = CARTESIAN_POINT ( 'NONE',  ( 0.000000000000000000, 0.000000000000000000, 3.000000000000000000 ) ) ;
#17 = PRODUCT ( 'edee', 'edee', '', ( #193 ) ) ;
#18 = CARTESIAN_POINT ( 'NONE',  ( 0.000000000000000000, 0.000000000000000000, 128.0000000000000000 ) ) ;
#19 = APPROVAL_PERSON_ORGANIZATION ( #152, #145, #184 ) ;
#20 =( NAMED_UNIT ( * ) PLANE_ANGLE_UNIT ( ) SI_UNIT ( $, .RADIAN. ) );
#21 = CYLINDRICAL_SURFACE ( 'NONE', #42, 3.000000000000000444 ) ;
#22 = EDGE_CURVE ( 'NONE', #198, #58, #117, .T. ) ;
#23 = ORIENTED_EDGE ( 'NONE', *, *, #138, .F. ) ;
#24 = EDGE_LOOP ( 'NONE', ( #5, #221, #159, #123 ) ) ;
#25 = LINE ( 'NONE', #102, #143 ) ;
#26 = DESIGN_CONTEXT ( 'detailed design', #114, 'design' ) ;
#27 = CARTESIAN_POINT ( 'NONE',  ( 0.000000000000000000, 0.000000000000000000, 128.0000000000000000 ) ) ;
#28 = ADVANCED_FACE ( 'NONE', ( #6 ), #21, .T. ) ;
#29 = AXIS2_PLACEMENT_3D ( 'NONE', #130, #30, #83 ) ;
#30 = DIRECTION ( 'NONE',  ( -0.000000000000000000, -0.000000000000000000, -1.000000000000000000 ) ) ;
#31 = SHAPE_DEFINITION_REPRESENTATION ( #250, #243 ) ;
#32 = FACE_OUTER_BOUND ( 'NONE', #24, .T. ) ;
#33 = APPROVAL_ROLE ( '' ) ;
#34 = DIRECTION ( 'NONE',  ( 0.000000000000000000, 0.000000000000000000, 1.000000000000000000 ) ) ;
#35 = DATE_AND_TIME ( #233, #208 ) ;
#36 = APPROVAL_DATE_TIME ( #234, #39 ) ;
#37 = CARTESIAN_POINT ( 'NONE',  ( 0.000000000000000000, 0.000000000000000000, 0.000000000000000000 ) ) ;
#38 = PERSON_AND_ORGANIZATION ( #136, #8 ) ;
#39 = APPROVAL ( #131, 'NEURÈENÝ' ) ;
#40 = FACE_OUTER_BOUND ( 'NONE', #144, .T. ) ;
#41 = ORIENTED_EDGE ( 'NONE', *, *, #119, .F. ) ;
#42 = AXIS2_PLACEMENT_3D ( 'NONE', #140, #177, #79 ) ;
#43 = APPROVAL_PERSON_ORGANIZATION ( #38, #39, #33 ) ;
#44 = ORIENTED_EDGE ( 'NONE', *, *, #73, .F. ) ;
#45 = ORIENTED_EDGE ( 'NONE', *, *, #138, .T. ) ;
#46 = AXIS2_PLACEMENT_3D ( 'NONE', #87, #110, #170 ) ;
#47 = DIRECTION ( 'NONE',  ( 0.000000000000000000, 0.000000000000000000, 1.000000000000000000 ) ) ;
#48 = ADVANCED_FACE ( 'NONE', ( #40 ), #178, .F. ) ;
#49 = DIRECTION ( 'NONE',  ( 0.000000000000000000, 0.000000000000000000, 1.000000000000000000 ) ) ;
#50 = DIRECTION ( 'NONE',  ( 0.000000000000000000, 0.000000000000000000, 1.000000000000000000 ) ) ;
#51 = COORDINATED_UNIVERSAL_TIME_OFFSET ( 1, 0, .AHEAD. ) ;
#52 = DIRECTION ( 'NONE',  ( -1.000000000000000000, 0.000000000000000000, 0.000000000000000000 ) ) ;
#53 = CARTESIAN_POINT ( 'NONE',  ( 0.000000000000000000, 0.000000000000000000, 3.000000000000000000 ) ) ;
#54 = DIRECTION ( 'NONE',  ( 1.000000000000000000, 0.000000000000000000, 0.000000000000000000 ) ) ;
#55 = PERSON_AND_ORGANIZATION ( #136, #8 ) ;
#56 = AXIS2_PLACEMENT_3D ( 'NONE', #85, #47, #54 ) ;
#57 = EDGE_CURVE ( 'NONE', #95, #199, #25, .T. ) ;
#58 = VERTEX_POINT ( 'NONE', #125 ) ;
#59 = ORIENTED_EDGE ( 'NONE', *, *, #57, .T. ) ;
#60 = VERTEX_POINT ( 'NONE', #104 ) ;
#61 = EDGE_LOOP ( 'NONE', ( #179, #220 ) ) ;
#62 = EDGE_CURVE ( 'NONE', #201, #198, #180, .T. ) ;
#63 = DIRECTION ( 'NONE',  ( 1.000000000000000000, 0.000000000000000000, 0.000000000000000000 ) ) ;
#64 = DIRECTION ( 'NONE',  ( 0.000000000000000000, 0.000000000000000000, 1.000000000000000000 ) ) ;
#65 = PERSON_AND_ORGANIZATION_ROLE ( 'creator' ) ;
#66 = DIRECTION ( 'NONE',  ( 0.000000000000000000, 0.000000000000000000, 1.000000000000000000 ) ) ;
#67 = DIRECTION ( 'NONE',  ( 0.000000000000000000, 0.000000000000000000, 1.000000000000000000 ) ) ;
#68 = PERSON_AND_ORGANIZATION ( #136, #8 ) ;
#69 = APPLICATION_PROTOCOL_DEFINITION ( 'international standard', 'config_control_design', 1994, #120 ) ;
#70 = FACE_OUTER_BOUND ( 'NONE', #244, .T. ) ;
#71 =( NAMED_UNIT ( * ) SI_UNIT ( $, .STERADIAN. ) SOLID_ANGLE_UNIT ( ) );
#72 = APPROVAL_DATE_TIME ( #137, #12 ) ;
#73 = EDGE_CURVE ( 'NONE', #58, #122, #76, .T. ) ;
#74 = AXIS2_PLACEMENT_3D ( 'NONE', #27, #67, #63 ) ;
#75 = CARTESIAN_POINT ( 'NONE',  ( 1.600000000000000089, 1.959434878635765230E-16, 128.0000000000000000 ) ) ;
#76 = CIRCLE ( 'NONE', #215, 1.600000000000000089 ) ;
#77 = VERTEX_POINT ( 'NONE', #168 ) ;
#78 = EDGE_LOOP ( 'NONE', ( #161, #222 ) ) ;
#79 = DIRECTION ( 'NONE',  ( -1.000000000000000000, 0.000000000000000000, 0.000000000000000000 ) ) ;
#80 = CC_DESIGN_DATE_AND_TIME_ASSIGNMENT ( #209, #218, ( #100 ) ) ;
#81 = AXIS2_PLACEMENT_3D ( 'NONE', #126, #154, #206 ) ;
#82 = DIRECTION ( 'NONE',  ( -0.000000000000000000, -0.000000000000000000, -1.000000000000000000 ) ) ;
#83 = DIRECTION ( 'NONE',  ( -1.000000000000000000, 0.000000000000000000, 0.000000000000000000 ) ) ;
#84 = CIRCLE ( 'NONE', #103, 1.600000000000000089 ) ;
#85 = CARTESIAN_POINT ( 'NONE',  ( 0.000000000000000000, 0.000000000000000000, 3.000000000000000000 ) ) ;
#86 = LINE ( 'NONE', #253, #203 ) ;
#87 = CARTESIAN_POINT ( 'NONE',  ( 0.000000000000000000, 0.000000000000000000, 3.000000000000000000 ) ) ;
#88 = CIRCLE ( 'NONE', #10, 3.000000000000000444 ) ;
#89 = COORDINATED_UNIVERSAL_TIME_OFFSET ( 1, 0, .AHEAD. ) ;
#90 = DIRECTION ( 'NONE',  ( 0.000000000000000000, 0.000000000000000000, 1.000000000000000000 ) ) ;
#91 = ADVANCED_FACE ( 'NONE', ( #70 ), #183, .T. ) ;
#92 = PERSON_AND_ORGANIZATION ( #136, #8 ) ;
#93 = CLOSED_SHELL ( 'NONE', ( #181, #28, #91, #108, #48, #111, #127 ) ) ;
#94 = CC_DESIGN_APPROVAL ( #145, ( #185 ) ) ;
#95 = VERTEX_POINT ( 'NONE', #191 ) ;
#96 = PRODUCT_RELATED_PRODUCT_CATEGORY ( 'detail', '', ( #17 ) ) ;
#97 = ORIENTED_EDGE ( 'NONE', *, *, #62, .F. ) ;
#98 = LOCAL_TIME ( 19, 55, 22.00000000000000000, #236 ) ;
#99 = EDGE_LOOP ( 'NONE', ( #142, #175, #45, #3 ) ) ;
#100 = PRODUCT_DEFINITION ( 'NEZNÁMÝ', '', #223, #26 ) ;
#101 = ORIENTED_EDGE ( 'NONE', *, *, #204, .T. ) ;
#102 = CARTESIAN_POINT ( 'NONE',  ( -3.000000000000000444, 0.000000000000000000, 3.000000000000000000 ) ) ;
#103 = AXIS2_PLACEMENT_3D ( 'NONE', #254, #64, #135 ) ;
#104 = CARTESIAN_POINT ( 'NONE',  ( 3.000000000000000444, 3.673940397442060361E-16, 0.000000000000000000 ) ) ;
#105 = APPROVAL_STATUS ( 'not_yet_approved' ) ;
#106 = DIRECTION ( 'NONE',  ( -0.000000000000000000, -0.000000000000000000, -1.000000000000000000 ) ) ;
#107 = APPROVAL_DATE_TIME ( #35, #145 ) ;
#108 = ADVANCED_FACE ( 'NONE', ( #166, #252 ), #151, .T. ) ;
#109 = CYLINDRICAL_SURFACE ( 'NONE', #160, 1.600000000000000089 ) ;
#110 = DIRECTION ( 'NONE',  ( -0.000000000000000000, -0.000000000000000000, -1.000000000000000000 ) ) ;
#111 = ADVANCED_FACE ( 'NONE', ( #248 ), #228, .T. ) ;
#112 = PERSON_AND_ORGANIZATION_ROLE ( 'design_supplier' ) ;
#113 = CARTESIAN_POINT ( 'NONE',  ( 1.600000000000000089, 1.959434878635765230E-16, 128.0000000000000000 ) ) ;
#114 = APPLICATION_CONTEXT ( 'configuration controlled 3d designs of mechanical parts and assemblies' ) ;
#115 = CIRCLE ( 'NONE', #81, 3.000000000000000444 ) ;
#116 = EDGE_CURVE ( 'NONE', #95, #77, #128, .T. ) ;
#117 = LINE ( 'NONE', #75, #156 ) ;
#118 = ORIENTED_EDGE ( 'NONE', *, *, #174, .F. ) ;
#119 = EDGE_CURVE ( 'NONE', #77, #60, #213, .T. ) ;
#120 = APPLICATION_CONTEXT ( 'configuration controlled 3d designs of mechanical parts and assemblies' ) ;
#121 = LOCAL_TIME ( 19, 55, 22.00000000000000000, #51 ) ;
#122 = VERTEX_POINT ( 'NONE', #13 ) ;
#123 = ORIENTED_EDGE ( 'NONE', *, *, #204, .F. ) ;
#124 = CC_DESIGN_APPROVAL ( #39, ( #223 ) ) ;
#125 = CARTESIAN_POINT ( 'NONE',  ( 1.600000000000000089, 1.959434878635765230E-16, 3.000000000000000000 ) ) ;
#126 = CARTESIAN_POINT ( 'NONE',  ( 0.000000000000000000, 0.000000000000000000, 0.000000000000000000 ) ) ;
#127 = ADVANCED_FACE ( 'NONE', ( #172 ), #227, .T. ) ;
#128 = CIRCLE ( 'NONE', #56, 3.000000000000000444 ) ;
#129 = DIRECTION ( 'NONE',  ( 0.000000000000000000, 0.000000000000000000, 1.000000000000000000 ) ) ;
#130 = CARTESIAN_POINT ( 'NONE',  ( 0.000000000000000000, 0.000000000000000000, 128.0000000000000000 ) ) ;
#131 = APPROVAL_STATUS ( 'not_yet_approved' ) ;
#132 = CARTESIAN_POINT ( 'NONE',  ( 0.000000000000000000, 0.000000000000000000, 3.000000000000000000 ) ) ;
#133 = DATE_TIME_ROLE ( 'classification_date' ) ;
#134 = CARTESIAN_POINT ( 'NONE',  ( -3.000000000000000444, 0.000000000000000000, 0.000000000000000000 ) ) ;
#135 = DIRECTION ( 'NONE',  ( 1.000000000000000000, 0.000000000000000000, 0.000000000000000000 ) ) ;
#136 = PERSON ( 'NEURÈENÝ', 'NEURÈENÝ', 'NEURÈENÝ', ('NEURÈENÝ'), ('NEURÈENÝ'), ('NEURÈENÝ') ) ;
#137 = DATE_AND_TIME ( #251, #121 ) ;
#138 = EDGE_CURVE ( 'NONE', #60, #199, #88, .T. ) ;
#139 = EDGE_LOOP ( 'NONE', ( #197, #44 ) ) ;
#140 = CARTESIAN_POINT ( 'NONE',  ( 0.000000000000000000, 0.000000000000000000, 3.000000000000000000 ) ) ;
#141 = EDGE_CURVE ( 'NONE', #198, #201, #84, .T. ) ;
#142 = ORIENTED_EDGE ( 'NONE', *, *, #196, .F. ) ;
#143 = VECTOR ( 'NONE', #106, 1000.000000000000000 ) ;
#144 = EDGE_LOOP ( 'NONE', ( #118, #23 ) ) ;
#145 = APPROVAL ( #105, 'NEURÈENÝ' ) ;
#146 = CARTESIAN_POINT ( 'NONE',  ( 0.000000000000000000, 0.000000000000000000, 0.000000000000000000 ) ) ;
#147 = DIRECTION ( 'NONE',  ( -0.000000000000000000, -0.000000000000000000, -1.000000000000000000 ) ) ;
#148 = CARTESIAN_POINT ( 'NONE',  ( 3.000000000000000444, 3.673940397442060361E-16, 3.000000000000000000 ) ) ;
#149 = PERSON_AND_ORGANIZATION ( #136, #8 ) ;
#150 = PERSON_AND_ORGANIZATION_ROLE ( 'creator' ) ;
#151 = PLANE ( 'NONE',  #246 ) ;
#152 = PERSON_AND_ORGANIZATION ( #136, #8 ) ;
#153 = PERSON_AND_ORGANIZATION ( #136, #8 ) ;
#154 = DIRECTION ( 'NONE',  ( 0.000000000000000000, 0.000000000000000000, 1.000000000000000000 ) ) ;
#155 = MANIFOLD_SOLID_BREP ( 'Pøidat vysunutím3', #93 ) ;
#156 = VECTOR ( 'NONE', #82, 1000.000000000000000 ) ;
#157 = CC_DESIGN_APPROVAL ( #12, ( #100 ) ) ;
#158 = CC_DESIGN_PERSON_AND_ORGANIZATION_ASSIGNMENT ( #68, #167, ( #185 ) ) ;
#159 = ORIENTED_EDGE ( 'NONE', *, *, #73, .T. ) ;
#160 = AXIS2_PLACEMENT_3D ( 'NONE', #189, #232, #52 ) ;
#161 = ORIENTED_EDGE ( 'NONE', *, *, #116, .T. ) ;
#162 = ORIENTED_EDGE ( 'NONE', *, *, #217, .T. ) ;
#163 = CARTESIAN_POINT ( 'NONE',  ( 0.000000000000000000, 0.000000000000000000, 0.000000000000000000 ) ) ;
#164 = LOCAL_TIME ( 19, 55, 22.00000000000000000, #89 ) ;
#165 = AXIS2_PLACEMENT_3D ( 'NONE', #132, #34, #235 ) ;
#166 = FACE_BOUND ( 'NONE', #139, .T. ) ;
#167 = PERSON_AND_ORGANIZATION_ROLE ( 'classification_officer' ) ;
#168 = CARTESIAN_POINT ( 'NONE',  ( 3.000000000000000444, 3.673940397442060361E-16, 3.000000000000000000 ) ) ;
#169 = APPROVAL_ROLE ( '' ) ;
#170 = DIRECTION ( 'NONE',  ( -1.000000000000000000, 0.000000000000000000, 0.000000000000000000 ) ) ;
#171 = CALENDAR_DATE ( 2022, 7, 7 ) ;
#172 = FACE_OUTER_BOUND ( 'NONE', #61, .T. ) ;
#173 = AXIS2_PLACEMENT_3D ( 'NONE', #53, #129, #188 ) ;
#174 = EDGE_CURVE ( 'NONE', #199, #60, #115, .T. ) ;
#175 = ORIENTED_EDGE ( 'NONE', *, *, #119, .T. ) ;
#176 = AXIS2_PLACEMENT_3D ( 'NONE', #163, #245, #225 ) ;
#177 = DIRECTION ( 'NONE',  ( -0.000000000000000000, -0.000000000000000000, -1.000000000000000000 ) ) ;
#178 = PLANE ( 'NONE',  #176 ) ;
#179 = ORIENTED_EDGE ( 'NONE', *, *, #62, .T. ) ;
#180 = CIRCLE ( 'NONE', #74, 1.600000000000000089 ) ;
#181 = ADVANCED_FACE ( 'NONE', ( #32 ), #109, .T. ) ;
#182 = UNCERTAINTY_MEASURE_WITH_UNIT (LENGTH_MEASURE( 1.000000000000000082E-05 ), #237, 'distance_accuracy_value', 'NONE');
#183 = CYLINDRICAL_SURFACE ( 'NONE', #46, 3.000000000000000444 ) ;
#184 = APPROVAL_ROLE ( '' ) ;
#185 = SECURITY_CLASSIFICATION ( '', '', #14 ) ;
#186 = DIRECTION ( 'NONE',  ( 1.000000000000000000, 0.000000000000000000, 0.000000000000000000 ) ) ;
#187 = PERSON_AND_ORGANIZATION ( #136, #8 ) ;
#188 = DIRECTION ( 'NONE',  ( 1.000000000000000000, 0.000000000000000000, 0.000000000000000000 ) ) ;
#189 = CARTESIAN_POINT ( 'NONE',  ( 0.000000000000000000, 0.000000000000000000, 128.0000000000000000 ) ) ;
#190 = COORDINATED_UNIVERSAL_TIME_OFFSET ( 1, 0, .AHEAD. ) ;
#191 = CARTESIAN_POINT ( 'NONE',  ( -3.000000000000000444, 0.000000000000000000, 3.000000000000000000 ) ) ;
#192 = CC_DESIGN_DATE_AND_TIME_ASSIGNMENT ( #211, #133, ( #185 ) ) ;
#193 = MECHANICAL_CONTEXT ( 'NONE', #120, 'mechanical' ) ;
#194 = CC_DESIGN_PERSON_AND_ORGANIZATION_ASSIGNMENT ( #92, #15, ( #17 ) ) ;
#195 = APPROVAL_PERSON_ORGANIZATION ( #153, #12, #169 ) ;
#196 = EDGE_CURVE ( 'NONE', #77, #95, #238, .T. ) ;
#197 = ORIENTED_EDGE ( 'NONE', *, *, #217, .F. ) ;
#198 = VERTEX_POINT ( 'NONE', #113 ) ;
#199 = VERTEX_POINT ( 'NONE', #134 ) ;
#200 = CC_DESIGN_PERSON_AND_ORGANIZATION_ASSIGNMENT ( #149, #112, ( #223 ) ) ;
#201 = VERTEX_POINT ( 'NONE', #212 ) ;
#202 = AXIS2_PLACEMENT_3D ( 'NONE', #18, #49, #210 ) ;
#203 = VECTOR ( 'NONE', #214, 1000.000000000000000 ) ;
#204 = EDGE_CURVE ( 'NONE', #201, #122, #86, .T. ) ;
#205 = DIRECTION ( 'NONE',  ( 1.000000000000000000, 0.000000000000000000, -0.000000000000000000 ) ) ;
#206 = DIRECTION ( 'NONE',  ( 1.000000000000000000, 0.000000000000000000, 0.000000000000000000 ) ) ;
#207 = VECTOR ( 'NONE', #147, 1000.000000000000000 ) ;
#208 = LOCAL_TIME ( 19, 55, 22.00000000000000000, #11 ) ;
#209 = DATE_AND_TIME ( #231, #219 ) ;
#210 = DIRECTION ( 'NONE',  ( 1.000000000000000000, 0.000000000000000000, -0.000000000000000000 ) ) ;
#211 = DATE_AND_TIME ( #229, #98 ) ;
#212 = CARTESIAN_POINT ( 'NONE',  ( -1.600000000000000089, 0.000000000000000000, 128.0000000000000000 ) ) ;
#213 = LINE ( 'NONE', #148, #207 ) ;
#214 = DIRECTION ( 'NONE',  ( -0.000000000000000000, -0.000000000000000000, -1.000000000000000000 ) ) ;
#215 = AXIS2_PLACEMENT_3D ( 'NONE', #16, #50, #9 ) ;
#216 = CC_DESIGN_SECURITY_CLASSIFICATION ( #185, ( #223 ) ) ;
#217 = EDGE_CURVE ( 'NONE', #122, #58, #241, .T. ) ;
#218 = DATE_TIME_ROLE ( 'creation_date' ) ;
#219 = LOCAL_TIME ( 19, 55, 22.00000000000000000, #190 ) ;
#220 = ORIENTED_EDGE ( 'NONE', *, *, #141, .T. ) ;
#221 = ORIENTED_EDGE ( 'NONE', *, *, #22, .T. ) ;
#222 = ORIENTED_EDGE ( 'NONE', *, *, #196, .T. ) ;
#223 = PRODUCT_DEFINITION_FORMATION_WITH_SPECIFIED_SOURCE ( 'LIBOVOLNÝ', '', #17, .NOT_KNOWN. ) ;
#224 = CC_DESIGN_PERSON_AND_ORGANIZATION_ASSIGNMENT ( #55, #150, ( #100 ) ) ;
#225 = DIRECTION ( 'NONE',  ( 1.000000000000000000, 0.000000000000000000, -0.000000000000000000 ) ) ;
#226 = CARTESIAN_POINT ( 'NONE',  ( 0.000000000000000000, 0.000000000000000000, 3.000000000000000000 ) ) ;
#227 = PLANE ( 'NONE',  #202 ) ;
#228 = CYLINDRICAL_SURFACE ( 'NONE', #29, 1.600000000000000089 ) ;
#229 = CALENDAR_DATE ( 2022, 7, 7 ) ;
#230 =( GEOMETRIC_REPRESENTATION_CONTEXT ( 3 ) GLOBAL_UNCERTAINTY_ASSIGNED_CONTEXT ( ( #182 ) ) GLOBAL_UNIT_ASSIGNED_CONTEXT ( ( #237, #20, #71 ) ) REPRESENTATION_CONTEXT ( 'NONE', 'WORKASPACE' ) );
#231 = CALENDAR_DATE ( 2022, 7, 7 ) ;
#232 = DIRECTION ( 'NONE',  ( -0.000000000000000000, -0.000000000000000000, -1.000000000000000000 ) ) ;
#233 = CALENDAR_DATE ( 2022, 7, 7 ) ;
#234 = DATE_AND_TIME ( #171, #164 ) ;
#235 = DIRECTION ( 'NONE',  ( 1.000000000000000000, 0.000000000000000000, 0.000000000000000000 ) ) ;
#236 = COORDINATED_UNIVERSAL_TIME_OFFSET ( 1, 0, .AHEAD. ) ;
#237 =( LENGTH_UNIT ( ) NAMED_UNIT ( * ) SI_UNIT ( .MILLI., .METRE. ) );
#238 = CIRCLE ( 'NONE', #165, 3.000000000000000444 ) ;
#239 = DIRECTION ( 'NONE',  ( 1.000000000000000000, 0.000000000000000000, 0.000000000000000000 ) ) ;
#240 = ORIENTED_EDGE ( 'NONE', *, *, #174, .T. ) ;
#241 = CIRCLE ( 'NONE', #173, 1.600000000000000089 ) ;
#242 = EDGE_LOOP ( 'NONE', ( #7, #97, #101, #162 ) ) ;
#243 = ADVANCED_BREP_SHAPE_REPRESENTATION ( 'edee', ( #155, #4 ), #230 ) ;
#244 = EDGE_LOOP ( 'NONE', ( #41, #2, #59, #240 ) ) ;
#245 = DIRECTION ( 'NONE',  ( 0.000000000000000000, 0.000000000000000000, 1.000000000000000000 ) ) ;
#246 = AXIS2_PLACEMENT_3D ( 'NONE', #226, #247, #205 ) ;
#247 = DIRECTION ( 'NONE',  ( 0.000000000000000000, 0.000000000000000000, 1.000000000000000000 ) ) ;
#248 = FACE_OUTER_BOUND ( 'NONE', #242, .T. ) ;
#249 = CC_DESIGN_PERSON_AND_ORGANIZATION_ASSIGNMENT ( #187, #65, ( #223 ) ) ;
#250 = PRODUCT_DEFINITION_SHAPE ( 'NONE', 'NONE',  #100 ) ;
#251 = CALENDAR_DATE ( 2022, 7, 7 ) ;
#252 = FACE_OUTER_BOUND ( 'NONE', #78, .T. ) ;
#253 = CARTESIAN_POINT ( 'NONE',  ( -1.600000000000000089, 0.000000000000000000, 128.0000000000000000 ) ) ;
#254 = CARTESIAN_POINT ( 'NONE',  ( 0.000000000000000000, 0.000000000000000000, 128.0000000000000000 ) ) ;
#255 = APPLICATION_PROTOCOL_DEFINITION ( 'international standard', 'config_control_design', 1994, #114 ) ;
ENDSEC;
END-ISO-10303-21;
